Price Rick - Weve Got Each Other Chords & Tabs

 

Weve Got Each Other Chords & Tabs

Price Rick Chords & Tabs

Version: 1 Type: Chords 0 ratings
1 star 2 stars 3 stars 4 stars 5 stars
comments

Weve Got Each Other Chords

   
#----------------------------------PLEASE NOTE---------------------------------#
#This file is the author's own work and represents their interpretation of the #
#song. You may only use this file for private study, scholarship, or research. #
#------------------------------------------------------------------------------#
#
Subject:         Rick Price
   Date:         Sat, 08 Nov 1997 02:57:21 +0800
   From:         Aaron Gan 

We've Got Each Other
By:Rick Price
>From the 'Songs From The Heart' album
Transcribed by Aaron Gan 
[ Tab from: http://www.guitartabs.cc/tabs/p/price_rick/weve_got_each_other_crd.html ]
Tuning: Half-step down
Chords:
   D     Dsus2   A     Asus4   G      G*     Em    D/F#    Cadd9
|--2------0------0------0------3------5------0--------------------|
|--3------3------2------3------3------3------0------3------3------|
|--2------2------2------2------0------0------0------2------0------|
|--0------0------2------2------0------0------2--------------------|
|----------------0------0------2-------------2-------------3------|
|------------------------------3------3------0------2-------------|

  Bb      C      Am    Dm     D/C#   D/B
|--1------3------0------1-----------------------------------------|
|--3------5------1------3------3------3---------------------------|
|--3------5------2------2------2------2---------------------------|
|--3------5------2------0-----------------------------------------|
|--1------3------0-------------4------2---------------------------|
|--1------3-------------------------------------------------------|

Intro:

Dsus2-D (hammer-on the 1st string) D  A  Asus4 A G
Dsus2-D  D  G*

Comments