Pretty Violet Stain - If The Moneys Right Chords & Tabs

 

If The Moneys Right Chords & Tabs

Pretty Violet Stain Chords & Tabs

Version: 1 Type: Tab 0 ratings
1 star 2 stars 3 stars 4 stars 5 stars
comments

If The Moneys Right Tab

   
Pretty Violet Stain - If The Money's Right
Tabbed by Lee - elgeenius@hotmail.com.
  
If The Money's Right
Pretty Violet Stain


If you're gonna play along with PVS songs on the CD, tune down a half step.


Awesome song this.  oooooh yeeeeeeeeeah.

Intro riff.

This sounds best when you alternate your picking - almost play the two-note chords as if they are single notes.  

e-----------------------------------------
b-----------------------------------------
G---------------------5---5---5---8----
D------7---7---7----7---7---7---7----
A---0---0---0---0----------------------
E-----------------------------------------

and the verse is....

A5 - C5 - Eb

then the "if it's right bit" goes....

E - D5 - G - A - Asus

"leave the radio on all day..."

E - D5 - G - A - Asus

Then back to the intro riff.....
[ Tab from: http://www.guitartabs.cc/tabs/p/pretty_violet_stain/if_the_moneys_right_tab.html ]
"and we'll be wired all night - if the money's right" bit...

A - Cadd - G - F - G - A

A - Cadd - G - D5

the cool breakdown riff goes....

e----------------------------------------------------
b---------------------------------------------------
G----------------------------------------------------
D-----------------------------------5---7----------
A----------------5---7~~~~~~--------------------
E----0---0-------------------------------------------

then it's interspersed with D5...

then at the end it goes...

D5 (let ring)  - C5  (let ring) - ----->>  Eb - Eb - D - A

"shot in the back...."

And the outro is the cool breakdown riff again and the very end goes....

D5 (let ring)  - ----->>  Eb - Eb


If you wanna know the lead parts, drop me a line.

elgeenius@hotmail.com

also - if you're into supporting local brissy music - visit my band's website....

www.geocities.com/smoothflip_rock

 
:: Ultimate Guitar Archive :: 
http://www.ultimate-guitar.com 



Comments