Pretty Girls Make Graves - Chemical Chemical Chords & Tabs

 

Chemical Chemical Chords & Tabs

Pretty Girls Make Graves Chords & Tabs

Version: 1 Type: Bass Tab 0 ratings
1 star 2 stars 3 stars 4 stars 5 stars
comments

Chemical Chemical Bass Tab

Here is another Pretty Girls Tab for you fans out there. And for those who aren't fans too.

Band: Pretty Girls Make Graves
Album: The New Romance
Song: Chemical Chemical

G|-----55------------------------------------|
D|--------55-3-2-----------------------------|
A|7/0----------------------------------------|
E|-------------------------------------------|x3
00:07

G|-------------------------------------------|
D|---4>-5>-----------------------------------|
A|7>-----------------------------------------|
E|-------------------------------------------|x4
00:27
[ Tab from: http://www.guitartabs.cc/tabs/p/pretty_girls_make_graves/chemical_chemical_btab.html ]
G|-------------------------------------------|  |---------|
D|------4~-4~-5~-5>--------------------------|  |---4>-5>-|
A|7~-7~--------------------------------------|  |7>-------|
E|-------------------------------------------|  |---------|x3
01:04

G|-------------------------------------------|   |--------|
D|------45640-0------------------------------|   |--------|
A|7-777---------5----------------------------|   |5~------|
E|-------------------------------------------|x8 |--------|
01:34                                            02:02

G|-----55------------------------------------|
D|--------55-3-2-----------------------------|
A|7/0----------------------------------------|
E|-------------------------------------------|x4
02:08
On fourth time let the last note ring out

I'm not 100% on the last part (01:34) but it's pretty close. That's pretty much it.
~Ring Out
>Strum
/Slide up
Comments