Pretty Girls Make Graves - Blue Lights Chords & Tabs

 

Blue Lights Chords & Tabs

Pretty Girls Make Graves Chords & Tabs

Version: 1 Type: Bass Tab 0 ratings
1 star 2 stars 3 stars 4 stars 5 stars
comments

Blue Lights Bass Tab

There are no Pretty Girls bass tabs on here, so I figured I would attempt one. Hope you 
it, if you don't. Eat shit.

> means strum

Short Intro
G|--------------------------------------------------|
D|--------------------------------------------------|
A|-5-5-5-5---7-7-7-7----------333--333--333--333----|
E|5-5-5-5---7-7-7-7----5>----3----3----3----3-----0>|
  00:12

Just Bass
G|--------------------------------------------------|
D|--------------------------------------------------|
A|---------------------333--333--333--333-----------|
E|5>--------0>--------3----3----3----3-----0>-------| x2
0:25      0:32       0:35

[ Tab from: http://www.guitartabs.cc/tabs/p/pretty_girls_make_graves/blue_lights_btab.html ]
G|--------------------------------------------------|
D|--------------------------------------------------|
A|---------------------333--333--333--333-----------|
E|5>--------0>--------3----3----3----3-----0>-------|
1:01 Drums kick in at 1:03
G|--------------------------------------------------|
D|--------------------------------------------------|
A|-333--333--333--333-------------------------------|
E|3----3----3----3---------0>-----------------------|
1:17
G|--------------------------------------------------|
D|--------------------------------------------------|
A|---3333------3333----------3333------3333---------|
E|5>------5555------5555--5>------5555------5555----|
1:23
G|--------------------------------------------------|
D|--------------------------------------------------|
A|-333--333--333--333-------------------------------|
E|3----3----3----3---------0>-----------------------|
1:36
G|--------------------------------------------------|
D|--------------------------------------------------|
A|--------------------------------------------------|
E|5>-----------------0>-----------------------------| Note: Ring out last
1:39


All music kicks in:
G|--------------------------------------------------|
D|--------------------------------------------------|
A|---------------------333--333--333--333-----------|
E|5>--------0>--------3----3----3----3-----0>-------|
1:55 They play this same thing all the way through out the end.

Welp, there it is. I tried to make it as easy as possible to understand, if listen to 
song you can get the timing right. And I do beleive there is some sort of bass effects 
used, and I left out some minor little slides, but I'm sure that you guys have the the
brain compacity to figure those out.
Comments