Pretty Girls Make Graves - All Medicated Geniuses Chords & Tabs

 

All Medicated Geniuses Chords & Tabs

Pretty Girls Make Graves Chords & Tabs

Version: 1 Type: Bass Tab 0 ratings
1 star 2 stars 3 stars 4 stars 5 stars
comments

All Medicated Geniuses Bass Tab

This song is on the New Romance album and is about 90% right. In my opinion anyway.
Any questions or comments you can e-mail me at propagandhi81@a0l.com
So here ya go.


G|---------------------------------------------|   |-------|
D|---------------------------------------------|   |-------|
A|---------------------------------------------|   |-------|
E|3-5-0~x4--1-3-0~x4---------------------------|x2 |-5~----| 
00:22

G|---------------------------------------------|
D|---------------------------------------------|
A|---------------------------------------------|
E|55-55-55-55-33-33-11-00----------------------|x2
00:41

Break
G|---------------------------------------------|
D|---------------------------------------------|
A|---------------------------------------------|
E|3-5-0~---------------------------------------|x4
00:58
[ Tab from: http://www.guitartabs.cc/tabs/p/pretty_girls_make_graves/all_medicated_geniuses_btab.html ]
G|---------------------------------------------|
D|---------------------------------------------|
A|---------------------------------------------|
E|55-55-55-55-33-33-33-33----------------------|x3
01:03

G|-----| |-------------------------------------|
D|-----| |-------------------------------------|
A|-----| |-------------------------------------|
E|5-0~-| |3-5-0~x3-1-3-0~x4-3-5-0~x4-1-3-0~x4--|
01:30

G|---------------------------------------------|   |----------------| 
D|---------------------------------------------|   |----------------|
A|123-3-2-3-2---00---357-7-5-5-3-2-------------|   |123-3-2-3-2---0-|
E|------------3--------------------33----------|x7 |------------3---|
01:49

G|---------------------------------------------|
D|---------------------------------------------|
A|---------------------------------------------|
E|5~-------------------------------------------|
03:17

There it is. Hope you enjoy. If you don't, I really don't care weather you do or not.
Oh by the way:
~ Ring out
Comments