Pretenders - My City Was Gone Chords & Tabs

 

My City Was Gone Chords & Tabs

Pretenders Chords & Tabs

Version: 3 Type: Bass Tab 0 ratings
1 star 2 stars 3 stars 4 stars 5 stars
comments

My City Was Gone Bass Tab

Pretenders - My City Was Gone (Bass)


    Intro           Intro and Verse
G||-----------|   |------------------------|------------------------|
D||------9/---|   |------------7--8--9-----|-------6-----6-----6/---|
A||-----------|   |---------------------7--|----7-----7-----7-------|
E||-----------|   |--7----5----------------|------------------------|

[ Tab from: http://www.guitartabs.cc/tabs/p/pretenders/my_city_was_gone_btab_ver_3.html ]
     Chorus (I believe it changes to 6/4 timing for one measure)
G||------------------------|-------------------------|--------------------------|
D||------------7--8--9-----|--------6-----6-----6----|--7--7-----7--7-----7--7--|
A||---------------------7--|--7--7-----7-----7-------|--------9--------9--------|
E||--7----5----------------|-------------------------|--------------------------|

G||--------------------------11--12--13-----|----------------------|
D||--7-----7--7--7-----7h-9-----------------|----------------------|
A||-----9-----------9-----------------------|----------------7--7--|
E||--------------------------------------0--|----------0--0--------|

G||--------------------------|--------------------------|--------------------------|
D||--------------------------|--------------------------|--------------------12/---|
A||--------7--7--------7--7--|--------7--7--------7--7--|--------7--7--------------|
E||--0--0--------0--0--------|--0--0--------0--0--------|--0--0--------0--0--------|
Comments