Pretenders - Middle Of The Road Chords & Tabs

 

Middle Of The Road Chords & Tabs

Pretenders Chords & Tabs

Version: 2 Type: Tab 0 ratings
1 star 2 stars 3 stars 4 stars 5 stars
comments

Middle Of The Road Tab

-----------------------------------------------------------------------------
	            Middle of the Road - The Pretenders
-----------------------------------------------------------------------------

Tuning: Standard
[ Tab from: http://www.guitartabs.cc/tabs/p/pretenders/middle_of_the_road_tab_ver_2.html ]
Intro/Chorus:
e|--------2------------------------------------------------------------------|
B|-4--2---2------------------------------------------------------------------|
G|-4--2---5------------------------------------------------------------------|
D|-4--2---4------------------------------------------------------------------|
A|-2--0---4------------------------------------------------------------------|
E|--------2------------------------------------------------------------------|

Main Riff:
e----------------------------------------------------------------------------|
B|---------------------------------------------------------------------------|
G|--------------------2-0-0-0-0----------------------------------------------|
D|-----2-0-0-0-0--0-4--------------------------------------------------------|
A|-0-4-----------------------------------------------------------------------|
E|---------------------------------------------------------------------------|

That's it except for the solo.
Comments