Pretenders - Kid Lead Break Chords & Tabs

 

Kid Lead Break Chords & Tabs

Pretenders Chords & Tabs

Version: 1 Type: Tab 1 rating
1 star 2 stars 3 stars 4 stars 5 stars
comments

Kid Lead Break Tab

   
TablEdited by Sandy Barker
Tuning : E A D G B E 	Time Signature: 4/4
This is accurate. Listen to the recording to get the bends and slides just right.

 |       |       |       |        |       |       |       |        
|2h3h4-2-0---------------0-------|--------0-----------0-----------|
|------------0---------------4---|----2-------4---2-------4---2---|
|----------------2h--4-----------|4-------------------------------|
|--------------------------------|--------------------------------|
|--------------------------------|--------------------------------|
|--------------------------------|--------------------------------|

 |       |       |       |        |       |       |       |        
|----0-----------0-----------0---|--------0-----------0-----------|
|--------4-----------4-----------|0-----------0-----------0-------|
|2-----------2-----------2-------|----2-----------2-----------2---|
|--------------------------------|--------------------------------|
|--------------------------------|--------------------------------|
|--------------------------------|--------------------------------|
[ Tab from: http://www.guitartabs.cc/tabs/p/pretenders/kid_lead_break_tab.html ]
 |       |       |       |        |       |       |       |        
|--------------------------------|--------------------------------|
|--------------------------------|----------------5-------7---5---|
|1-b>2rb>1-----------------------|--------1/--4-------------------|
|------------2-----------2---2---|----2---------------------------|
|----------------2/--4-----------|--------------------------------|
|--------------------------------|--------------------------------|

 |       |       |       |        |       |       |       |        
|--------------------------------|--------------------------------|
|7-b>9--rb>7-5-------------------|--------------------------------|
|----------------6---4-----------|----4---------------------------|
|------------------------6p4-----|6-------6p4/2-------------------|
|----------------------------7---|----------------4---2-----------|
|--------------------------------|------------------------2-b&r-2-|

 |       |       |       |        
|--------12°---------------------|
|--------------------------------|
|--------------------------------|
|--------------------------------|
|--------------------------------|
|0-------------------------------|


Created with TablEdit http://www.tabledit.com/

Comments