Pressure 4 5 - Melt Me Down Chords & Tabs

 

Melt Me Down Chords & Tabs

Pressure 4 5 Chords & Tabs

Version: 3 Type: Tab 0 ratings
1 star 2 stars 3 stars 4 stars 5 stars
comments

Melt Me Down Tab

Pressure 4-5
Melt Me Down
Tabbed by: Jlong011@tampabay.rr.com
Tuning : drop C (tune one full step down and then tune like drop d)
Just follow it straight through and you should do fine.

Rhythm fig.1 Gtr.1
|--------------------------------------|
|--------------------------------------|
|--------------------------------------|X 2
|--------------------------------------|
|--------------------------------------|
|5-8-0-5-7-0-7-0-8-0-0-5-7-0-3-0-------|

Rhythm fig.2 Gtr.1
|-----------------------------------------|
|-----------------------------------------|
|-----------------------------------------|X 1
|-----------------------------------------|
|-----------------------------------------|
|5-h-85-8-0-5-7-0-7-0-8-0-0-5-7-0-3-0-----|

Rhythm fig.3 Gtr.1
|-------------------------------------|
|-------------------------------------|
|-------------------------------------|X 1
|-------------------------------------|
|-------------------------------------|
|5-8-0-5-7-0-7-0-8-0-8-8-0-5-7--------|

Rhythm fig.1 Gtr.1 (palm muted)
|--------------------------------------|
|--------------------------------------|
|--------------------------------------|X 7
|--------------------------------------|
|--------------------------------------|
|5-8-0-5-7-0-7-0-8-0-0-5-7-0-3-0-------|

Rhythm fig.3 Gtr.1 (palm muted)
|-------------------------------------|
|-------------------------------------|
|-------------------------------------|X 1
|-------------------------------------|
|-------------------------------------|
|5-8-0-5-7-0-7-0-8-0-8-8-0-5-7--------|

Rhythm fig.4 Gtr.2 (palm muted behind Gtr.1 verse 1)
|----------------------------------------|
|----------------------------------------|
|----------------------------------------|X 8
|---------7-7-7-7\8-3-3-3-3--------------|
|-5-5-5-5-5-5-5-5---1-1-1-1-3-3-3-3------|
|-5-5-5-5-------------------3-3-3-3-\8---|

Chorus
|------------------------------------|
|------------------------------------|
|------------------------------------|X 2
|-5-5--5-5--0-0--0-0--8-8--3-3--77---|
|-5-5--5-5--0-0--0-0--8-8--3-3--77---|
|-5-5--5-5--0-0--0-0--8-8--3-3--77---|

Rhythm fig.1 Gtr.1
|--------------------------------------|
|--------------------------------------|
|--------------------------------------|X 2
|--------------------------------------|
|--------------------------------------|
|5-8-0-5-7-0-7-0-8-0-0-5-7-0-3-0-------|

Rhythm fig.1 Gtr.1 (palm muted)
|--------------------------------------|
|--------------------------------------|
|--------------------------------------|X 3
|--------------------------------------|
|--------------------------------------|
|5-8-0-5-7-0-7-0-8-0-0-5-7-0-3-0-------|

Rhythm fig.3 Gtr.1 (palm muted)
|-------------------------------------|
|-------------------------------------|
|-------------------------------------|X 1
|-------------------------------------|
|-------------------------------------|
|5-8-0-5-7-0-7-0-8-0-8-8-0-5-7--------|
[ Tab from: http://www.guitartabs.cc/tabs/p/pressure_4_5/melt_me_down_tab_ver_3.html ]
Chorus
|------------------------------------|
|------------------------------------|
|------------------------------------|X 2
|-5-5--5-5--0-0--0-0--8-8--3-3--77---|
|-5-5--5-5--0-0--0-0--8-8--3-3--77---|
|-5-5--5-5--0-0--0-0--8-8--3-3--77---|

Bridge fig.1 w/ fill.1                              (strummed)
|--------------------------------------------------|--------------|
|--------------------------------------------------|----3---------|
|-----------7------3-------------------7------3----|-3--2---------|X 1
|----5----7------3--------3\----5----7------3----3-|-3--2---------|
|--5----5------1--------3--\--5----5------1------3-|-1--0---------|
|5--------------------3----\5--------------------3-|--------------|

Bridge fig.2
|----------------------|-------------------------------------------|
|----------------------|-------------------------------------------|
|----------------------|-------------------------------------------|X 2
|-111--111-111\3--111-|-111--111-111\3-5-5-7-8-5-55-5-7-8-5-5----|
|-111--111-111\3--111-|-111--111-111\3-5-5-5-5-5-55-5-5-5-5-5----|
|-111--111-111\3--111-|-111--111-111\3-5-5-5-5-5-5-5-5-5-5-5-5----|


Rhythm fig.1 Gtr.1
|--------------------------------------|
|--------------------------------------|
|--------------------------------------|X 1
|--------------------------------------|
|--------------------------------------|
|5-8-0-5-7-0-7-0-8-0-0-5-7-0-3-0-------|

Rhythm fig.3 Gtr.1
|-------------------------------------|
|-------------------------------------|
|-------------------------------------|X 1
|-------------------------------------|
|-------------------------------------|
|5-8-0-5-7-0-7-0-8-0-8-8-0-5-7--------|

Rhythm fig.1 Gtr.1 (palm muted)
|--------------------------------------|
|--------------------------------------|
|--------------------------------------|X 3
|--------------------------------------|
|--------------------------------------|
|5-8-0-5-7-0-7-0-8-0-0-5-7-0-3-0-------|

Rhythm fig.3 Gtr.1 (palm muted)
|-------------------------------------|
|-------------------------------------|
|-------------------------------------|X 1
|-------------------------------------|
|-------------------------------------|
|5-8-0-5-7-0-7-0-8-0-8-8-0-5-7--------|

Chorus
|------------------------------------|
|------------------------------------|
|------------------------------------|X 2
|-5-5--5-5--0-0--0-0--8-8--3-3--77---|
|-5-5--5-5--0-0--0-0--8-8--3-3--77---|
|-5-5--5-5--0-0--0-0--8-8--3-3--77---|

Bridge fig.1 w/ fill.2                            
|--------------------------------------------------|--------------|
|--------------------------------------------------|--------------|
|-----------7------3-------------------7------3----|-\-7----------|
|----5----7------3--------3\----5----7------3----3-|-\-7----------|
|--5----5------1--------3--\--5----5------1------3-|-\-7----------|
|5--------------------3----\5--------------------3-|--------------|

Outro
|------------------------------------------------------|
|------------------------------------------------------|
|------------------------------------------------------|X 2
|-555-555-555x/1--555-555-555x/1-----------------------|
|-555-555-555x/1--555-555-555x/1-----------------------|
|-555-555-555x/1--555-555-555x/1-----------------------|
Comments