Pressure 4-5 - Enough Chords & Tabs

 

Enough Chords & Tabs

Pressure 4-5 Chords & Tabs

Version: 1 Type: Tab 0 ratings
1 star 2 stars 3 stars 4 stars 5 stars
comments

Enough Tab

Artist- Pressure 4-5
Song- Enough
Tabber- Iconoclast
Tuning- Drop C

Chorus (intro)- guitar 1
----------------------------------
----------------------------------
----------------------------------
-7-----3-3-3/7-7-7-0-0-0----------
---5---3-3-3/7-7-7-0-0-0----------
-----0-3-3-3/7-7-7-0-0-0----------

Chorus (intro)- guitar 2
--------5-3-2----1-3-2-----1-3-2-----1-----
--------------3-3------3-3-------3-3---3-3-
-------------------------------------------
-------------------------------------------
-------------------------------------------
-------------------------------------------
[ Tab from: http://www.guitartabs.cc/tabs/p/pressure_4_5/enough_tab.html ]
Verse- guitar 1
-----------------------------------------------
-----------------------3-----------------------
-------5-7-7-5/2-2--------------5-7-7-5/2-2-5--
-0-0-0-5-5-5-5/2-2---3----0-0-0-5-5-5-5/2-2-3--
-0-0-0-3-----3/0-0-1------0-0-0-3-----3/0-0-1--
-0-0-0--------------------0-0-0----------------
 pm...................    pm...............

Verse- guitar 2 (comes in later in the verse)
-----------------------------------
-----------------------------------
-----7-5-5-5/2-2-2-2-----7-5-5-5/7-
-5-4-----------------5-4-----------
-----------------------------------
-----------------------------------

Bridge
-----0-0-0-0-0-0-0-0-0-0-0-0--------------------------
-----3-3-3-3-3-3-1-1-1-1-1-1-0-0-0-0-0-0-1-1-1-1-1-1--
-----2-2-2-2-2-2-2-2-2-2-2-2-2-2-2-2-2-2-3-3-3-3-3-3--
-3/7-0-0-0-0-0-0-3-3-3-3-3-3-2-2-2-2-2-2-3-3-3-3-3-3--
-3/7-------------------------0-0-0-0-0-0-1-1-1-1-1-1--
-3/7--------------------------------------------------

Enjoy.
Comments