Pressure 4 5 - Dehydration Chords & Tabs

 

Dehydration Chords & Tabs

Pressure 4 5 Chords & Tabs

Version: 2 Type: Tab 0 ratings
1 star 2 stars 3 stars 4 stars 5 stars
comments

Dehydration Tab

Artist- Pressure 4-5
Song- Dehydration
Tabber- Iconoclast
Tuning- Drop C

Verse
--------------------------------
-----------------3---3----------
-----2-----2--------------------
---0-----0-----3---3-------8----
-0-----------1-----------5---5--
-------0---------------5--------

---------------------------------
---------------------------------
-----2-----2---------------------
---0-----0-------4---4---4p0-4p0-
-0-----0-------5---5---5---------
-------------0-------------------

Prechorus
------------------------------------
------------------------------------
-------7-7-7------------------------
-4-4-4-7-7-7-0-0-0-8-8-8-7-7-5-5----
-4-4-4-5-5-5-0-0-0-8-8-8-7-7-5-5----
-4-4-4-------0-0-0-8-8-8-7-7-5-5----
[ Tab from: http://www.guitartabs.cc/tabs/p/pressure_4_5/dehydration_tab_ver_2.html ]
Chorus
---|---------------------------------
---|---------------------------------
---|-----7-7-7-7-7-7-7-7-------------
-2-|-4-4-x-x-x-x-x-x-x-x-2-2-0---4---
-2-|-4-4-5-5-5-5-5-5-5-5-2-2-0-0---0-
-2-|-4-4-----------------2-2-0-------

Bridge
-------------------------------|-------------------------
-------------------------------|-------------------------
-2/4-4-4-4/5-5-5-5/7-7-7-7-----|-------------------------
-2/4-4-4-4/5-5-5-5/7-7-7-7-0-0-|-4-4-4-4-4-4-5-5-5-5-5-5-
-0/2-2-2-2/3-3-3-3/5-5-5-5-0-0-|-4-4-4-4-4-4-5-5-5-5-5-5-
---------------------------0-0-|-4-4-4-4-4-4-5-5-5-5-5-5-

----------------------------------
-7-7-7-7/8-8-8-8/10-10-10-10------
-x-x-x-x-x-x-x-x-x---x--x--x------
-4-4-4-4/5-5-5-5/7---7--7--7-0-0--
-----------------------------0-0--
-----------------------------0-0--

Enjoy.

Comments