Pressure 4 5 - Beat The World Chords & Tabs

 

Beat The World Chords & Tabs

Pressure 4 5 Chords & Tabs

Version: 1 Type: Tab 0 ratings
1 star 2 stars 3 stars 4 stars 5 stars
comments

Beat The World Tab

   
Song: Beat the world
Band: Pressure 4-5
Album: Pressure 4-5 demo ep
Tabber: Barry French (Bazdurst)

I saw pressure 4-5 when they done a support for Alien Ant Farm and I will say that they sounded pretty good. This song ain’t the difficult to play.

Riff 1 (Intro a)

E-------------------------------------
B-------------------------------------
G-------------------------------------
D-------8-----10------8-----7---------
A-------------------------------------
E----8-------------8------------------

Riff 2 (Intro b)

E--------------------------------------
B--------------------------------------
G---------------------------8-8-8-8----
D--10-13-10-13-13--5-5-5-5--8-8-8-8----
A--10-13-10-13-13--5-5-5-5--6-6-6-6----       
E--8--11-8--11-11--3-3-3-3-------------

Riff 3 (Intro c)

E-------------------------------------
B-------------------------------------
G-------------------------------------
D--10-13-10-13-13--5-5-5-5--8-8-8-8---
A--10-13-10-13-13--5-5-5-5--8-8-8-8---
E--8--11--8-11-11--3-3-3-3--6-6-6-6---  

play riff 1 several times, then riff 2 3x, then riff 3 1x, then riff 2 3x, then riff 3 1x

right before riff 5 starts, play this,

Riff 4 (pre-verse)

E------------------
B------------------
G------------------
D-11------X-X-X-X--
A-11------X-X-X-X--
E--8------X-X-X-X--

Riff 5 (verse)

there is no guitar in the first part of this riff. After a few lines play this

E-----------------------------------
B-----------------------------------
G-----------------------------------
D-----------------------------------  3x
A-------------------------6-6-6-6---
E--8-11-8-11-11--3-3-3-3------------

E-----------------------------8-8-8-8----
B----------------------------------------
G----------------------------------------
D----------------------------------------
A-------------------6-6-6-6--------------
E--8-11-8-11-11--------------------------

Riff 6 (chorus)
[ Tab from: http://www.guitartabs.cc/tabs/p/pressure_4_5/beat_the_world_tab.html ]
E-------------------------------------
B-------------------------------------
G--5-5-5-5-5-5-5-5--8-8-8-8-8-8-8-8---
D--5-5-5-5-5-5-5-5--8-8-8-8-8-8-8-8---
A--3-3-3-3-3-3-3-3--6-6-6-6-6-6-6-6---
E-------------------------------------

E---------------------------------------------------------------------
B---------------------------------------------------------------------
G-------------------------8-8-8-8--------------------5-5-5-5-5-5-5-5--
D--10-13--10-13--5-5-5-5--8-8-8-8---8-8-8-8-8-8-8-8--5-5-5-5-5-5-5-5--
A--10-13--10-13--5-5-5-5--6-6-6-6---8-8-8-8-8-8-8-8--3-3-3-3-3-3-3-3--
E--8--11--8--11--3-3-3-3------------6-6-6-6-6-6-6-6-------------------

E---------------------------------------
B---------------------------------------
G------------------------8-8-8-8--------
D--10-13-10-13--5-5-5-5--8-8-8-8--------
A--10-13-10-13--5-5-5-5--6-6-6-6--------
E--8--11--8-11--3-3-3-3-----------------

E----------------------------------
B----------------------------------
G------------------------8-8-8-8---
D--10-13-10-13--5-5-5-5--8-8-8-8---
A--10-13-10-13--5-5-5-5--6-6-6-6---
E--8--11--8-11--3-3-3-3------------

E----------------------------------
B----------------------------------
G------------------------8-8-8-8---
D--10-13-10-13--5-5-5-5--8-8-8-8---
A--10-13-10-13--5-5-5-5--6-6-6-6---
E--8--11--8-11--3-3-3-3------------

Riff 6 (Verse 2)

there is no guitar for the first few measures, then come in with this

E----------------------------------
B----------------------------------
G----------------------------------
D----8-10-8------------------------
A----------------------6-6-6-6-----
E--8---------3-3-3-3---------------

Riff 8 (Bridge)

E---------------------------------
B---------------------------------
G---------------------------------
D--13---13-15-15-11-11-15-15--13--
A--13---13-15-15-11-11-15-15--13--
E--11---11-13-13-8---8-13-13--11--

repeat several times, then:

I-----------------------------------
I-----------------------------------
I----------------------------8-8-8--
I--5-5-5-5--8-8-8---5-5-5-5--8-8-8--
I--5-5-5-5--8-8-8---5-5-5-5--6-6-6--
I--3-3-3-3--6-6-6---3-3-3-3---------

The song goes 

Riff 1 several times
Riff 2 3x
Riff 3 1x
Riff 2 3x
Riff 3 1x
Riff 4 1x
Riff 5 1x
Riff 2 1x
Riff 6 1x
Riff 7 1x
Riff 6 1x
Riff 8 several times
Riff 6 1x




Comments