Presley Elvis - Snowbird Intro Chords & Tabs

 

Snowbird Intro Chords & Tabs

Presley Elvis Chords & Tabs

Version: 1 Type: Tab 0 ratings
1 star 2 stars 3 stars 4 stars 5 stars
comments

Snowbird Intro Tab

   
##################################################################################
# This file is the author's own work and represents their interpretation of the  #
# song. You may only use this file for private study, scholarship, or research.  #
##################################################################################

Snowbird
--------

Standard tuning.

    Intro:  C   Em   Dm   C



    e||-----------------------------------1--3--5----7--7p6p5--5--5p4p3--|
    B||------------------------------------------------------------------|
    G||--5--7--9----4--5--7----2--4--5-----------------------------------|
    D||------------------------------------------------------------------|
    A||------------------------------------------------------------------|
    E||------------------------------------------------------------------|


    e||-1--0-------------0-1-0--------------------||
    B||-------3--1---1-3-------3-1----------------||
    G||----------------------------4-2------------||
    D||-3--2--0------------------------5-3-2------||
    A||----------3---------------------------5-3--||
    E||-------------------------------------------||


****************************************************************************************************

****************************************************************************************************


Wild in the Country
-------------------
Standard tuning.
[ Tab from: http://www.guitartabs.cc/tabs/p/presley_elvis/snowbird_intro_tab.html ]
     G                 G
e||-----------3-----------------3--------||
B||--------0-----0-----------0-----0-----||
G||-----0-----------0-----0-----------0--||
D||--------------------------------------||
A||--------------------------------------||
E||--3-----------------3-----------------||
     C                 C
e||-----------0-----------------0--------||
B||--------1-----1-----------1-----1-----||
G||-----2-----------2-----2-----------2--||
D||--------------------------------------||
A||--3-----------------3-----------------||
E||--------------------------------------||
     D7                D7
e||-----------2-----------------2--------||
B||--------1-----1-----------1-----1-----||
G||-----2-----------2-----2-----------2--||     And so on......
D||--0-----------------0-----------------||
A||--------------------------------------||
E||--------------------------------------||


****************************************************************************************************

****************************************************************************************************


You Gave Me A Mountain
By: Marty Robbins
Performed By: Elvis Presley

Tabbed by: Brandon Hogg (hogg1@ipa.net)


Intro:

E---------------------------------------------------------------------------------||-
----------------------------8----------10----8---8--------------------------------||-
----------9--9---7---9----------9--------------------10---9-----------------------||-
--------------------------------------------------------------------10--9--7------||-
----------------------------------------------------------------------------------||-
e---------------------------------------------------------------------------------||-
Comments