Presley Elvis - Nearer My God To Thee Chords & Tabs

 

Nearer My God To Thee Chords & Tabs

Presley Elvis Chords & Tabs

Version: 1 Type: Tab 0 ratings
1 star 2 stars 3 stars 4 stars 5 stars
comments

Nearer My God To Thee Tab

solo
                                                                             
E||--7------5-----3--|--3-----0--0------|---------3-----7--|--5-------------|
B||------------------|------------------|--3---------------|----------------|
G||------------------|------------------|------------------|----------------|
D||------------------|------------------|------------------|----------------|
A||------------------|------------------|------------------|----------------|
E||------------------|------------------|------------------|----------------|


                                                                            
--7------5-----3--|--3-----0--0------|--------3--2-----5--|--3-------------|
------------------|------------------|--3-----------------|----------------|
------------------|------------------|--------------------|----------------|
------------------|------------------|--------------------|----------------|
------------------|------------------|--------------------|----------------|
------------------|------------------|--------------------|----------------|


                                                                 
--10------12-----10--|--10-----7--10------|--10------12-----10--|
---------------------|--------------------|---------------------|
---------------------|--------------------|---------------------|
---------------------|--------------------|---------------------|
---------------------|--------------------|---------------------|
---------------------|--------------------|---------------------|


                                                                             
--10-----7--5------|--7------5-----3--|--3-----0--0------|-------3--2----5--|
-------------------|------------------|------------------|--3---------------|
-------------------|------------------|------------------|------------------|
-------------------|------------------|------------------|------------------|
-------------------|------------------|------------------|------------------|
-------------------|------------------|------------------|------------------|


                                                                          
--3-------------|--7------5-----3--|--3-----0--0------|---------3-----7--|
----------------|------------------|------------------|--3---------------|
----------------|------------------|------------------|------------------|
----------------|------------------|------------------|------------------|
----------------|------------------|------------------|------------------|
----------------|------------------|------------------|------------------|


                                                                            
--5-------------|--7------5-----3--|--3-----0--0------|--------3--2-----5--|
----------------|------------------|------------------|--3-----------------|
----------------|------------------|------------------|--------------------|
----------------|------------------|------------------|--------------------|
----------------|------------------|------------------|--------------------|
----------------|------------------|------------------|--------------------|

[ Tab from: http://www.guitartabs.cc/tabs/p/presley_elvis/nearer_my_god_to_thee_tab.html ]
                                                            
--3-------------|--10------12-----10--|--10-----7--10------|
----------------|---------------------|--------------------|
----------------|---------------------|--------------------|
----------------|---------------------|--------------------|
----------------|---------------------|--------------------|
----------------|---------------------|--------------------|


                                                                                
--10------12-----10--|--10-----7--5------|--7------5-----3--|--3-----0--0------|
---------------------|-------------------|------------------|------------------|
---------------------|-------------------|------------------|------------------|
---------------------|-------------------|------------------|------------------|
---------------------|-------------------|------------------|------------------|
---------------------|-------------------|------------------|------------------|


                                                                          
-------3--2----5--|--3-------------|--7------5-----3--|--3-----0--0------|
--3---------------|----------------|------------------|------------------|
------------------|----------------|------------------|------------------|
------------------|----------------|------------------|------------------|
------------------|----------------|------------------|------------------|
------------------|----------------|------------------|------------------|


                                                                          
---------3-----7--|--5-------------|--7------5-----3--|--3-----0--0------|
--3---------------|----------------|------------------|------------------|
------------------|----------------|------------------|------------------|
------------------|----------------|------------------|------------------|
------------------|----------------|------------------|------------------|
------------------|----------------|------------------|------------------|


                                                            
--------3--2-----5--|--3-------------|--10------12-----10--|
--3-----------------|----------------|---------------------|
--------------------|----------------|---------------------|
--------------------|----------------|---------------------|
--------------------|----------------|---------------------|
--------------------|----------------|---------------------|


                                                               
--10-----7--10------|--10------12-----10--|--10-----7--5------|
--------------------|---------------------|-------------------|
--------------------|---------------------|-------------------|
--------------------|---------------------|-------------------|
--------------------|---------------------|-------------------|
--------------------|---------------------|-------------------|


                                                                           
--7------5-----3--|--3-----0--0------|-------3--2----5--|--3-------------||
------------------|------------------|--3---------------|----------------||
------------------|------------------|------------------|----------------||
------------------|------------------|------------------|----------------||
------------------|------------------|------------------|----------------||
------------------|------------------|------------------|----------------||


Comments