Presley Elvis - Love Me Tender Chords & Tabs

 

Love Me Tender Chords & Tabs

Presley Elvis Chords & Tabs

Version: 2 Type: Tab 7 ratings
1 star 2 stars 3 stars 4 stars 5 stars
comments

Love Me Tender Tab

Elvis Presley-"Love Me Tender"
Tabbed by docrice21@yahoo.com


E|-----------------------------
B|-----------------------------
G|-----------------------------
D|-----------0---0-------------
A|-----3-2-3---0---3-2-0-2-3---
E|---3-------------------------

[ Tab from: http://www.guitartabs.cc/tabs/p/presley_elvis/love_me_tender_tab_ver_2.html ]
E|-----------------------------
B|-----------------------------
G|-----------------------------
D|-----------0---0-------------
A|-----3-2-3---0---3-2-0-2-3---
E|---3-------------------------


E|-----------------------------
B|-----------------------------
G|-----------------------------
D|---2-2-2--2-2-2---2-0---0--2-
A|----------------------3------
E|-----------------------------


E|-----------------------------
B|-----------------------------
G|-----------------------------
D|---2-2-3--2-0---0-----2-0----
A|--------------0---3-2-----3--
E|-----------------------------

Enjoy
Comments