Presley Elvis - Little Less Conversation Chords & Tabs

 

Little Less Conversation Chords & Tabs

Presley Elvis Chords & Tabs

Version: 1 Type: Bass Tab 0 ratings
1 star 2 stars 3 stars 4 stars 5 stars
comments

Little Less Conversation Bass Tab

   
elvis-a_little_less_conversation.btab
Tuning : E A D G 	Time Signature: 4/4


 |       |       |       |        |       |       |       |        
|--------10----------------8-10--|--------10----------------8-10--|
|--------------8---8-9---10------|--------------8---8-9---10------|
|8---8---------------------------|8---8---------------------------|
|--------------------------------|--------------------------------|

 |       |       |       |        |       |       |       |        
|--------10----------------8-10--|--------10----------------8-10--|
|--------------8---8-9---10------|--------------8---8-9---10------|
|8---8---------------------------|8---8---------------------------|
|--------------------------------|--------------------------------|

 |       |       |       |        |       |       |       |        
|--------10----------------8-10--|--------10----------------8-10--|
|--------------8---8-9---10------|--------------8---8-9---10------|
|8---8---------------------------|8---8---------------------------|
|--------------------------------|--------------------------------|

 |       |       |       |        |       |       |       |        
|--------10----------------8-10--|--------10----------------8-10--|
|--------------8---8-9---10------|--------------8---8-9---10------|
|8---8---------------------------|8---8---------------------------|
|--------------------------------|--------------------------------|

 |       |       |       |        |       |       |       |        
|--------------------------------|--------------------------------|
|--------3-----------------1-3---|--------3-----------------1-3---|
|--------------1---1---3---------|--------------1---1---3---------|
|1---1---------------------------|1---1---------------------------|

 |       |       |       |        |       |       |       |        
|--------------------------------|--------------------------------|
|--------3-----------------1-3---|--------3-----------------1-3---|
|--------------1---1---3---------|--------------1---1---3---------|
|1---1---------------------------|1---1---------------------------|

 |       |       |       |        |       |       |       |        
|--------------------------------|--------------------------------|
|--------3-----------------1-3---|--------3-----------------1-3---|
|----------------1-1---3---------|--------------1-1-2---3---------|
|1---1---------------------------|1---1---------------------------|

 |       |       |       |        |       |       |       |        
|--------------------------------|--------------------------------|
|--------3-----------------1-3---|--------3---------------1-2-3---|
|--------------1---2---3---------|--------------1---2-3-----------|
|1---1---------------------------|1---1---------------------------|

 |       |       |       |        |       |       |       |        
|--------------------------------|--------------------------------|
|--------------------------------|----------------1-1---1-1-------|
|--------------------------------|1---1---1---1-------------------|
|1---1---1-------4-4---4-4-------|--------------------------------|

 |       |       |       |        |       |       |       |        
|--------------------------------|--------------------------------|
|--------------------------------|--------3-----------------1-3---|
|--------------3---3---3-3-------|------------------------3-------|
|1---1---1-----------------------|1---1---------------------------|

 |       |       |       |        |       |       |       |        
|--------------------------------|--------------------------------|
|--------3-----------------1-3---|--------3-----------------1-3---|
|--------------1---1---3---------|--------------1---1---3---------|
|1---1---------------------------|1---1---------------------------|

 |       |       |       |        |       |       |       |        
|--------------------------------|--------------------------------|
|--------3-----------------1-3---|--------3-----------------1-3---|
|--------------1---1---3---------|--------------1---1---3---------|
|1---1---------------------------|1---1---------------------------|

 |       |       |       |        |       |       |       |        
|--------------------------------|--------------------------------|
|--------3-----------------1-3---|--------3-----------------1-3---|
|--------------1---1---3---------|--------------1---1---3---------|
|1---1---------------------------|1---1---------------------------|

 |       |       |       |        |       |       |       |        
|--------------------------------|--------------------------------|
|--------3-----------------1-3---|--------3-----------------1-3---|
|--------------1---1---3---------|--------------1---1---3---------|
|1---1---------------------------|1---1---------------------------|

 |       |       |       |        |       |       |       |        
|--------------------------------|--------------------------------|
|--------3-----------------1-3---|--------3-----------------1-3---|
|--------------1---1---3---------|--------------2---1---3---------|
|1---1---------------------------|1---1---------------------------|
[ Tab from: http://www.guitartabs.cc/tabs/p/presley_elvis/little_less_conversation_btab.html ]
 |       |       |       |        |       |       |       |        
|--------------------------------|--------------------------------|
|--------3-----------------1-3---|--------3-----------------1-3---|
|--------------2---1---3---------|--------------2---1---3---------|
|1---1---------------------------|1---1---------------------------|

 |       |       |       |        |       |       |       |        
|--------------------------------|--------------------------------|
|--------3-----------------1-3---|--------3-----------------1-3---|
|--------------1---1---3---------|--------------1---1---3---------|
|1---1---------------------------|1---1---------------------------|

 |       |       |       |        |       |       |       |        
|--------------------------------|--------------------------------|
|--------3-----------------1-3---|--------3-----------------1-3---|
|--------------1---1---3---------|--------------2---1---3---------|
|1---1---------------------------|1---1---------------------------|

 |       |       |       |        |       |       |       |        
|--------------------------------|--------------------------------|
|--------3-----------------1-3---|--------------------------------|
|------------3-2-1-2-----3-------|--------------------------------|
|1---1---------------------------|1---1---1-------4-4---4-4-------|

 |       |       |       |        |       |       |       |        
|--------------------------------|--------------------------------|
|----------------1-1---1-1-------|--------------------------------|
|1---1---1-----------------------|----------------3-3---3-3-------|
|--------------------------------|1---1---1-----------------------|

 |       |       |       |        |       |       |       |        
|--------------------------------|--------------------------------|
|--------------------------1-3---|--------------------------1-3---|
|------------3-2-1-1-1---3-------|------------3-2-1-1-1---3-------|
|1---1---1-----------------------|1-------1-----------------------|

 |       |       |       |        |       |       |       |        
|--------------------------------|----------0---------------------|
|--------------------------------|--------1-----3---1---------1---|
|----------------------------3/1h|----3-----------------3---1-----|
|1-------------------------------|--------------------------------|

 |       |       |       |        |       |       |       |        
|--------------------------------|----------0---------------------|
|--------------------------------|--------1-----3---1---------1---|
|--------------------------------|----1-3---------------3---1-----|
|1---1---1---1---1---------------|1-------------------------------|

 |       |       |       |        |       |       |       |        
|--------------------------------|--------------------------------|
|--------------------------------|--------------------------------|
|--------------------------------|--------------------------------|
|1---1---1---1---1---1---1---1---|4---4---4---4---4---4---4---4---|

 |       |       |       |        |       |       |       |        
|3---3---3---3---3---3---3---3---|5---5---5---5---5---5---5---5---|
|--------------------------------|--------------------------------|
|--------------------------------|--------------------------------|
|--------------------------------|--------------------------------|

 |       |       |       |        |       |       |       |        
|5---5---5---5---5---5---5---5---|5-------------------------------|
|--------------------------------|--------------------------------|
|--------------------------------|--------------------------------|
|--------------------------------|--------------------------------|

 |       |       |       |        |       |       |       |        
|--------------------------------|--------------------------------|
|--------------------------1-3---|--------------------------1-3---|
|----------------------1-3-------|------------------------3-------|
|1---1---1-----------------------|1---1---1-----------------------|

 |       |       |       |        |       |       |       |        
|--------------------------------|--------------------------------|
|--------------------------1-3---|--------------------------1-3---|
|------------------------3-------|------------------------3-------|
|1---1---1-----------------------|1---1---1-----------------------|

 |       |       |       |        |       |       |       |        
|--------------------------------|--------------------------------|
|--------------------------------|----------------1-1---1-1-------|
|--------------------------------|1---1---1---1-------------------|
|1---1---1-------4-4---4-4-------|--------------------------------|

 |       |       |       |        |       |       |       |        
|--------------------------------|--------------------------------|
|--------------------------------|--------------------------1-3---|
|----------------3-3---3-3-------|----------------1-1---3---------|
|1---1---1-----------------------|1-------1-----------------------|

 |       |       |       |        |       |       |       |        
|--------------------------------|--------------------------------|
|--------3-----------------1-3---|--------3-----------------1-3---|
|----------------1-1---3---------|----------------1-1---3---------|
|1---1---------------------------|1---1---------------------------|
Comments