Presley Elvis - Hound Dog Chords & Tabs

 

Hound Dog Chords & Tabs

Presley Elvis Chords & Tabs

Version: 1 Type: Bass Tab 0 ratings
1 star 2 stars 3 stars 4 stars 5 stars
comments

Hound Dog Bass Tab

Hound Dog by Elvis Presley
Tabbed by Cody Westby
[ Tab from: http://www.guitartabs.cc/tabs/p/presley_elvis/hound_dog_btab.html ]
The song's simple:
G------------------------------------------------------
D------------------------------------------------------
A-0-4-7------------------------------------------------
E------------------------------------------------------
Then:
G-------------------------------------------------------
D-0-4-7-------------------------------------------------
A-------------------------------------------------------
E-------------------------------------------------------
do the first one again, then:
G-------------------------------------------------------
D-------0-4-7-------------------------------------------
A-------------------------------------------------------
E-0-4-7-------------------------------------------------
then do it all over again.

========================================================
Cody Westby, bassist of Mr. Jumbo

Comments