Presley Elvis - Don't Cry Daddy Chords & Tabs

 

Don't Cry Daddy Chords & Tabs

Presley Elvis Chords & Tabs

Version: 1 Type: Tab 0 ratings
1 star 2 stars 3 stars 4 stars 5 stars
comments

Don't Cry Daddy Tab

   
##################################################################################
# This file is the author's own work and represents their interpretation of the  #
# song. You may only use this file for private study, scholarship, or research.  #
##################################################################################

Don't Cry Daddy
---------------

Standard tuning

       Intro:

       Guitar 1 (Capo 5):
    e||--------------0-----------|--------------0-----------|
    B||--------2-----2-----2-----|--------1-----1-----1-----|
    G||--------2-----------2-----|--------0-----------0-----|
    D||-----2-----2-----2-----2--|-----2-----2-----2-----2--|
    A||--0-----------------------|--0-----------------------|
    E||--------------------------|--------------------------|
     |                                                      |
     | Guitar 2:                                            |
     |   D                          F/D                     |
    e||--------------2-----------|--------1-----1-----1-----|
    B||--------3-----------3-----|--------1-----1-----1-----|
    G||-----2-----2-----2-----2--|-----2-----2-----2-----2--|
    D||--0-----------------------|--0-----------------------|
    A||--------------------------|--------------------------|
    E||--------------------------|--------------------------|


[ Tab from: http://www.guitartabs.cc/tabs/p/presley_elvis/dont_cry_daddy_tab.html ]
    e||--------5-----------------|--------------0-----------|
    B||--------7-----7-----------|--------2-----2-----2-----|
    G||--------------7-----7-----|--------2-----------2-----|
    D||-----7-----7-----7-----7--|-----2-----2-----2-----2--|
    A||--0-----------------------|--0-----------------------|
    E||--------------------------|--------------------------|
     |                                                      |
     |   G/D                        D                       |
    e||--------3-----3-----3-----|--------2-----2-----2-----|
    B||--------3-----3-----3-----|--------3-----3-----3-----|
    G||-----4-----4-----4-----4--|-----2-----2-----2-----2--|
    D||--0-----------------------|--0-----------------------|
    A||--------------------------|--------------------------|
    E||--------------------------|--------------------------|


    e||--------------------------||
    B||--------0-----3-----0-----||
    G||--------0-----4-----0-----||
    D||-----0-----0-----0-----0--||
    A||--0-----------------------||
    E||--------------------------||


     |                            |
     |   C/D                      |
    e||--------0-----0-----0-----||
    B||--------1-----1-----1-----||
    G||-----0-----0-----0-----0--||
    D||--0-----------------------||
    A||--------------------------||
    E||--------------------------||


Ending:

       Guitar 1 (Capo 5):
    e||--------------0-----------|--------------0-----------|--0-------------|
    B||--------2-----2-----2-----|--------1-----1-----1-----|--2-------------|
    G||--------2-----------2-----|--------0-----------0-----|--2-------------|
    D||-----2-----2-----2-----2--|-----2-----2-----2-----2--|--2-------------|
    A||--0-----------------------|--0-----------------------|--0-------------|
    E||--------------------------|--------------------------|----------------|
     |                                                      |
     | Guitar 2:                                            |
     |   D                          F/D                     |
    e||--------2-----2-----2-----|--------1-----1-----1-----|--2-------------|
    B||--------3-----3-----3-----|--------1-----1-----1-----|--3-------------|
    G||-----2-----2-----2-----2--|-----2-----2-----2-----2--|--2-------------|
    D||--0-----------------------|--0-----------------------|--0-------------|
    A||--------------------------|--------------------------|----------------|
    E||--------------------------|--------------------------|----------------|
Comments