Presley Elvis - Cc Rider Chords & Tabs

 

Cc Rider Chords & Tabs

Presley Elvis Chords & Tabs

Version: 1 Type: Tab 0 ratings
1 star 2 stars 3 stars 4 stars 5 stars
comments

Cc Rider Tab

   
##################################################################################
# This file is the author's own work and represents their interpretation of the  #
# song. You may only use this file for private study, scholarship, or research.  #
##################################################################################

See See Rider
-------------

Standard tuning.

Intro:
     A7
e||----------------------|---------------------|----------------------|---------------------||
B||*------5-------7------|--5------------------|-------5-------7------|--5-----------------*||
G||-------5h-6----7------|--5----------x-------|-------5h-6----7------|--5----------x-------||
D||-------5-------7------|---------------------|-------5-------7------|---------------------||
A||*---------------------|---------------------|----------------------|--------------------*||
E||--5-------------------|--5-------------3----|--5-------------------|--5-------------3----||


Verse:
     A7
e||----------------------|---------------------|----------------------|---------------------||
B||-------5-------7------|--5------------------|-------5-------7------|--5------------------||
G||-------5h-6----7------|--5----------x-------|-------5h-6----7------|--5----------x-------||
D||-------5-------7------|---------------------|-------5-------7------|---------------------||
A||----------------------|---------------------|----------------------|---------------------||
E||--5-------------------|--5-------------3----|--5-------------------|--5-------------3----||
                                                                                    Oh,-

e||----------------------|---------------------|----------------------|---------------------||
B||-------5-------7------|--5------------------|-------5-------7------|--5------------------||
G||-------5h-6----7------|--5----------x-------|-------5h-6----7------|--5----------x-------||
D||-------5-------7------|---------------------|-------5-------7------|---------------------||
A||----------------------|---------------------|----------------------|---------------------||
E||--5-------------------|--5-------------3----|--5-------------------|--5-------------3----||
     See,--                       See-see        Rid-    er,                        oh,-

e||----------------------|---------------------|----------------------|---------------------||
B||-------5-------7------|--5------------------|-------5-------7------|--5------------------||
G||-------5h-6----7------|--5----------x-------|-------5h-6----7------|--5----------x-------||
D||-------5-------7------|---------------------|-------5-------7------|---------------------||
A||----------------------|---------------------|----------------------|---------------------||
E||--5-------------------|--5-------------3----|--5-------------------|--5-------------3----||
     See,--                   what you have      done                          I said,

     D7
e||-------2------2-------|--2------------------|-------2------2-------|--2------------------||
B||-------1------1-------|--1------------------|-------1------1-------|--1------------------||
G||-------2------2-------|--2------------------|-------2------2-------|--2------------------||
D||--0-------------------|---------------------|--0-------------------|---------------------||
A||----------------------|---------------------|----------------------|---------------------||
E||----------------------|---------------------|----------------------|---------------------||
     See,                      See- see           Rid  -  er,                        oh,-

     A7
e||----------------------|---------------------|----------------------|---------------------||
B||-------5-------7------|--5------------------|-------5-------7------|--5------------------||
G||-------5h-6----7------|--5----------x-------|-------5h-6----7------|--5----------x-------||
D||-------5-------7------|---------------------|-------5-------7------|---------------------||
A||----------------------|---------------------|----------------------|---------------------||
E||--5-------------------|--5-------------3----|--5-------------------|--5-------------3----||
     see-                     what you have      done.                        Well,   you

     E7
e||----------------------|---------------------|----------------------|---------------------||
B||-------3------3-------|--3------------------|--3-------------------|---------------------||
G||----------------------|--1----------1-------|--5-------------------|---------------------||
D||-----------------2----|----------------2----|--4-------------------|---------------------||
A||----------------------|---------------------|----------------------|---------------------||
E||--0-------------------|---------------------|----------------------|---------------------||
    made        me-        love   you,   and     now, and now, and now- your lover man has
[ Tab from: http://www.guitartabs.cc/tabs/p/presley_elvis/cc_rider_tab.html ]
                                                                      +-------------
     A7                                                               | 1, 3
e||----------------------|---------------------|----------------------|---------------------||
B||-------5-------7------|--5------------------|-------5-------7------|--5------------------||
G||-------5h-6----7------|--5----------x-------|-------5h-6----7------|--5----------x-------||
D||-------5-------7------|---------------------|-------5-------7------|---------------------||
A||----------------------|---------------------|----------------------|---------------------||
E||--5-------------------|--5-------------3----|--5-------------------|--5-------------3----||
    gone.                        What'd I say!                              Oh, well,I'm


  +---------------
  | 2                       A
e||----------------------|--5----------------------|--------------8--10p-8------||
B||-------5-------7------|-------10------10----10--|--10----10--------------10--||
G||-------5h-6----7------|-------------------------|----------------------------||
D||-------5-------7------|-------------------------|----------------------------||
A||----------------------|-------------------------|----------------------------||
E||--5-------------------|-------------------------|----------------------------||

e||--8h-9------------0---------|--0---------0--------------|-------------------------||
B||--------10----10--------10--|--------10--------10--8\---|-------2--2--2--2--3--3--||
G||---------------------9------|-----9---------9-----------|--4b---------------------||
D||----------------------------|---------------------------|-------------------------||
A||----------------------------|---------------------------|-------------------------||
E||----------------------------|---------------------------|-------------------------||

e||------------------------|------0----------------|--------------------------||
B||------------------------|-----------------------|--------------------------||
G||--6b---8--8--8--8--8b---|-----------9--9--9--9--|--9--9--9--8--7--7--5--6--||
D||------------------------|-----------------------|--------------------------||
A||------------------------|-----------------------|--------------------------||
E||------------------------|-----------------------|--------------------------||

     D7
e||--------------------------|--------------------------|--------------------------||
B||--------------------------|--------------------------|--------------------------||
G||--7--9--9--9--9--9--9--9--|--9--8--8--8--7--7--7--7--|--7--7--5--6--------------||
D||--------------------------|--------------------------|--------------7--7--5--5--||
A||--------------------------|--------------------------|--------------------------||
E||--------------------------|--------------------------|--------------------------||

                                A
e||--------------------------|-----------------------|------------------------||
B||--------------------------|-----------------------|------------------------||
G||--------------------------|-----------------------|---------------5--7p-5--||
D||--------------------------|---------------5-------|--5------5h-7-----------||
A||--5--5--3--3--5--5--3--4--|--0----5/-7---------7--|------------------------||
E||--------------------------|-----------------------|------------------------||

e||---------------------|---------------------|---------------------||
B||---------------------|---------------------|---------------------||
G||---------------------|----------------6----|--7--------7------6--||
D||--7--------7--7------|--7--------7---------|---------------------||
A||---------------------|---------------------|---------------------||
E||---------------------|---------------------|---------------------||

                           D7
e||---------------------|-------------------------|--------------------------||
B||---------------------|-------------------------|--------------------------||
G||--7--7b-----9--------|--9p-7--x--x--x--x--5b---|--------------------------||
D||---------------------|-------------------------|--x--x--x--x--------------||
A||---------------------|-------------------------|--------------x--x--x--x--||
E||---------------------|-------------------------|--------------------------||

     A
e||--------------------|----------------------|---------------------||
B||--------------------|----------------------|---------------------||
G||-------2------------|-----------6p-4--2----|---------------------||
D||--------------------|----------------------|-------2------4------||
A||--4-----------------|--0-------------------|--0------------------||
E||--------------------|----------------------|---------------------||

e||-------------------||
B||-------------------||
G||-------------------||
D||-------------------||
A||--2----------------||
E||-------------------||
            Well, I'm


  CODA
     A7
e||--------------------||----------------------|---------------------||
B||--5-----------------||*---------------------|---------------------||
G||--6-----------------||--------6------6h-7---|--6------------------||
D||--5-----------------||--------5------5h-7---|--5------------------||
A||--------------------||*---------------------|---------------------||
E||--------------------||---5------------------|---------------------||
          Well, I said    See,                       See- see

                                Repeat w/vocal
                                  ad lib.         A
e||--------------------|----------------------||--0------------------||
B||--------------------|---------------------*||--2------------------||
G||-------6-----6h-7---|--6-------------------||--2------------------||
D||-------5-----5h-7---|--5-------------------||--2------------------||
A||--------------------|---------------------*||--0------------------||
E||--5-----------------|----------------------||---------------------||
    Rid   -  er                    I said,



     Rhythm pattern used in 2nd verse
e||-----------------5---|--3------------------||
B||*--------------------|--------------------*||
G||--------4h-5/-6------|--4------------------||
D||---------------------|---------------------||
A||*--------------------|--------------------*||
E||---5-----------------|---------------------||
Comments