Presley Elvis - Are You Lonesome Tonight Intro Chords & Tabs

 

Are You Lonesome Tonight Intro Chords & Tabs

Presley Elvis Chords & Tabs

Version: 1 Type: Chords 1 rating
1 star 2 stars 3 stars 4 stars 5 stars
comments

Are You Lonesome Tonight Intro Chords

   
##################################################################################
# This file is the author's own work and represents their interpretation of the  #
# song. You may only use this file for private study, scholarship, or research.  #
##################################################################################

Are You Lonesome Tonight?
-------------------------

Standard tuning.
[ Tab from: http://www.guitartabs.cc/tabs/p/presley_elvis/are_you_lonesome_tonight_intro_crd.html ]
    Intro:
         C               Dm          G7               C             G7
    e||------------------1--1--1--1-------1--1--1--1-------0--0--0--1--1--1--||
    B||------------------3--3--3--3-------0--0--0--0-------1--1--1--0--0--0--||
    G||------------------2--2--2--2-------0--0--0--0-------0--0--0--0--0--0--||
    D||------0--2--0-(0)-0--0--0--0-------0--0--0--0----2--2--2--2--0--0--0--||
    A||--3-----------------------------2--------------3----3--3--3--2--2--2--||
    E||------------------------------3------------------------------3--3--3--||


    Variation on intro:
         C               Dm          G7               C
    e||------------------1--1--1--1-------1--1--1--1-------0--0--||
    B||------------------3--3--3--3-------0--0--0--0-------1--1--||
    G||------------------2--2--2--2-------0--0--0--0-------0--0--||
    D||------0--2--0-(0)-0--0--0--0-------0--0--0--0----2--2--2--||
    A||--3-----------------------------2--------------3----3--3--||
    E||------------------------------3---------------------------||

                  G
    e||-----------3--3--------------||
    B||-----------0--0--------------||
    G||-----------0--0--------------||
    D||-----------0--0--------------||
    A||-----------2--2--------------||
    E||--0--1--2--3--3--1--1--0--0--||
Comments