Presidents Of The Usa - Peaches Chords & Tabs

 

Peaches Chords & Tabs

Presidents Of The Usa Chords & Tabs

Version: 4 Type: Tab 0 ratings
1 star 2 stars 3 stars 4 stars 5 stars
comments

Peaches Tab

   
-----------------------------------------------------------------------------
			     PEACHES - Presidents of The USA
-----------------------------------------------------------------------------
Tabbed by: thizizliz00
Email:thiz_iz_liz@hotmail.com

I'm not sure if this is 100% correct, but it sounds good to me!
 Have fun, rock on

Tuning: E,B,G,D,A,E

INTRO
e|--------------------------------------------|
B|--------------------------------------------|
G|--------------------------------------------|
D|5-5-5-5-4-2-2-2-4-2----5/9-9-9-7-2-2-4-2----|
A|--------------------5--------------------5--|
E|--------------------------------------------|
  ~ ~ ~ ~ ~ ~ ~ ~ ~ ~ ~    ~ ~ ~ ~ ~ ~ ~ ~ ~
[ Tab from: http://www.guitartabs.cc/tabs/p/presidents_of_the_usa/peaches_tab_ver_4.html ]
VERSE
e|--------------------   ----------------------|
B|--------------------   ----------------------|
G|--------------------   ----------------------|
D|--------------------   --8-8-8-8-6-4-4-8-6-3-|
A|-9-9-9-9-8-6-6-8-6-4 --9-9-9-9-8-6-6-6-4-4-| x2
E|--------------------   ----------------------|


CHORUS
e|---------------------------------------|
B|---------------------------------------|
G|-------2-2-4-------2-2-4-------2-2-4---|
D|-2-2-2-2-2-4-2-2-2-2-2-2-2-2-2-2-2-4-6-|
A|-2-2-2-0-0-2-2-2-2-0-0-2-2-2-2-0-0-2-6-|
E|-0-0-0-------0-0-0-------0-0-0-------4-| x2

OUTRO
e|--------------------------------|
B|--------------------------------|
G|-6-6-6-4-4-4-4-3-3-3-4-4-4-4----|
D|-6-6-6-4-4-4-4-3-3-3-4-4-4-4----|
A|-4-4-4-2-2-2-2-1-1-1-2-2-2-2----|
E|--------------------------------|
 Do it 8 times with palm muting, then 10 times without palm muting

Last Chord
e|---------|
B|---------|
G|---------|
D|-11\-----|
A|-11\-----|
E|-9-\-----|


| /  slide up
| \  slide down
| h  hammer-on
| p  pull-off
| ~  vibrato
| +  harmonic
| x  Mute note
=============================================================================

There!! That was my first tab, hope it doesnt suck =)
Comments