Presidents Of The Usa - Peaches Chords & Tabs

 

Peaches Chords & Tabs

Presidents Of The Usa Chords & Tabs

Version: 1 Type: Tab 1 rating
1 star 2 stars 3 stars 4 stars 5 stars
comments

Peaches Tab

   
#----------------------------------PLEASE NOTE---------------------------------#
#This file is the author's own work and represents their interpretation of the #
#song. You may only use this file for private study, scholarship, or research. #
#------------------------------------------------------------------------------#


From: FMPV97C@prodigy.com (MR RYAN K KRAUSE)
Date: Sat,  5 Oct 1996 18:20:58, -0500
Subject: Tab:Peaches

  Peaches written by Chris Ballew and the Presidents
  Tabbed by Ryan Krause and the Yamaha
  Off of their self titled city Presidents of the U.S.A.
  
                                    PEACHES 
                                    
                                   Power Chords
E5 F5 F#5 G5 G#5 A5   A#5 B5 B#5 C5 C#5 D5    D#5 
----------------------------------------------------------------------
-----
----------------------------------------------------------------------
------
----------------------------------------------------------------------
-------
----------------------------------------------------------------------
-2--3-
------------------------------------2----3----4----5---6----7-----0---
1-
-2---3---4-----5---6------7-or-0----1----2----3---4----5-or-------- -
0---1---2-----3---4------5--------------------------------------------
--         
                                        Tuning
                                 BASS    GUITAR          
                                 EADG   EADGBe 
                                   
                                        Key
                               ^=hammeron
                               v=pulloff
                               /=slide up 
                               \=slide down
                           |----|=4/4 measure
                               +=beat

                                     SONG

                               Intro and Chorus
        
               play over and over
               in the intro and verse

         + + +     + 
B  G ------------------------|
a  D -4-4-2^4-4v2^4-o|
s   A ----------------------o|
s   E ------------------------|

     wait 'till the Bass plays 
      the above twice
   
        + + +  + |+    +     +   +|+ + +    +|+    +     +   +|      

g  e -------------|-------------------|--------------|----------------
------|
u  B -------------|-------------------|--------------|----------------
---o-|
i   G -0-0-0-----|-------------------|-------------|------------------
----|
t   D ---------4--|-2^4-2-2-2-0--|-5/9-7-7--|-2^4-2-2-2-0----| 
a  A -------------|--------------------|-------------|----------------
---o-|
r   E -------------|--------------------|-------------|---------------
-------|


                                  Verse 

B  sounds like some
A  what the same 
S  thing as the 
S  verse/intro

G   
U       chords                     
I    E5 A5 E5
T    A5 G#5
A  (rhythm will be
R  under lyrics)

                                  Bridge
                                             
(play just over 100,000,000,000,000,000,000,000,000 times)
                                       
B  G ---------------------------------------------------|\
A  D -------------------------------------------------o| \
S  A -9-9-9\7-7-7-7-7\6-6-6-6/7-7-7-7-7-o|  \
S  E ---------------------------------------------------|   \
                                                               \     

let guitar play above once                            \        
before the bass comes in                               \ play ALL
                                                                  / 
the notes
G  e ---------------------------------------------------|      / 
U  B -------------------------------------------------o|     /   
I   G ---------------------------------------------------|   /
T  D ---------------------------------------------------|  /
A  A -9-9-9\7-7-7-7-7\6-6-6-6/7-7-7-7-7-o| /
R  E ---------------------------------------------------|/
                                        
                              Outro

B same
A as
S the
S bridge

G turn
U bridge
I  notes
T into
A power
R chords

                         Lyrics/Structure

                                 Chorus
                             
Movin' to country gonna eat a lotta peaches x4

                                Verse 1

E5           A5             E5  Fill A
Peaches come from a can
Fill A 
They were put there by a man
A5        G#5                    Fill B
In a factory  down town
Fill A
If I had my little way
Fill A
I'd eat peaches every day
Fill B
Some soaking and buldging in the shade

                               Chorus

                               Verse 2

Fill A
Took a little nap with a little so twist
Fill A
Squished a rotten peach in my fist
Fill B
Dreamed about you woman
Fill A
Poked my finger down inside
Fill A
Made a little room for an ant to hide
Fill B
Nature's candy in my hand no can, no pie

                                 Bridge

Millions of peaches, Peaches for free
Millions of peaches, Peaches for me 
            
                                  Outro


Date: 1 Dec 1996 22:50:08 -0000
From: Steve Berman 



Track 6 off of the self-titled album.

Its best played with distortion on.

Peaches by the Presidents of the U.S.A

First off, this file may look weird because I don't have any tab creation 
software. I've got a mac. If anyone knows of anything that is a tab 
creation program, tips would be helpful. THANKS!	

This is probably one of the best cuts of their first album. The 
previous tab was a bit off, so here's how you should really play it!

Intro Thing/Verse/ IT'S GOT VIBRATO!

e:|----------------------------------------------------------------------------
--------|
B:|----------------------------------------------------------------------------
--------|
G:|----------------------------------------------------------------------------
--------|
D:|----------------------------------------------------------------------------
--------|
A:|----9---9-9-9-8--6-6-6h8-6-4----9-13-13-13-11----6-6-6h8--6-4---------------
---------------------------|
E:|----------------------------------------------------------------------------
---------|

	After the intro, just play the same riff, but a lot quieter
 (and, if you want, add vibrato. It sounds a lot better). 
	Then, when the song gets louder, it is played a bit different.
  It goes like this:

e:|------------------------------------------------------------------------|
B:|------------------------------------------------------------------------|
G:|------------------------------------------------------------------------|
D:|------------------------------------------------------------------------|
A:|---9--9-9-9-8--6-6-6-8-6-4---6-6-6-6-6-8----6-6-6h8-6-4-----------|
E:|------------------------------------------------------------------------|

	The chorus is pretty much the same as the previous tab, 
	but he was a little bit off again. Geez!

Chorus

e:|------------------------------------------------------------------------|
B:|------------------------------------------------------------------------|
G:|------------------------------------------------------------------------|
D:|------------------------------------------------------------------------|
A:|--2------------7----------2---------7---------2--------7--------6-6-6-6-|
E:|--0------------5----------0---------5---------0--------5--------4-4-4-4-|
	
  Then you repeat that and go back to the verse riff. The next chorus is
  the same, but then you stumble upon the riff at the end. Don't dispair,
  here it is!	

End Riff

e:|----------------------------------------------------------------------------
---|
B:|----------------------------------------------------------------------------
---|
G:|----------------------------------------------------------------------------
---|
D:|----------------------------------------------------------------------------
---|
A:|-----4-4-4--2-2-2-2-2--1-1-1--2-2-2-2-2-------------------------------------
-----|
E:|----------------------------------------------------------------------------
----|

	After playing that until he yells "LOOK OUT!," switch the 
  single notes into power chords, so it would be:
  C# C# C# A# A# A# A# A# A A A A# A# A# A# A# 
	(Powerchords). Then, after he says "LOOK OUT" the
  second time, just hit a C# powerchord on the E and A
  strings and slide down for that beeeeeoooo effect at 
  the end of the song.

Lyrics

Movin to the country, gonna eat a lot of peaches
Movin to the country, gonna eat me a lot of peaches
Movin to the country, gonna eat a lot of peaches
Movin to the country, gonna eat a lot of peaches

Peaches come from a can
They were put there by a man
in a factory downtown

If I had my little way
I'd eat peaches every day
Sun soaking bulges in the shade....

Movin' to the country, gonna eat a lot of peaches
Movin' to the country, gonna eat a lot of peaches
Movin' to the country, gonna eat a lot of peaches
Movin' to the country, gonna eat a lot of peaches

Took a little nap while look so twist
Twist a rotten peach in my fist
And dreamed about you, woman

Poked my finger down inside
Make a little room for an ant to hide
Nature's candy in my hand, or can, or pie

Millions of peaches, peaches for me
Millions of peaches, peaches for free
Millions of peaches, peaches for me
Millions of peaches, peaches for free...

LOOK OUT!

Millions of peaches, peaches for me
Millions of peaches, peaches for free
Millions of peaches, peaches for me
Millions of peaches, peaches for free...

LOOK OUT!


Date: Wed, 14 May 1997 08:03:58 +0100
From: "Batist, J." 


PEACHES
PRESIDENTS OF THE UNITED STATES OF AMERICA

Transcription by BERRY BATIST
Email: j.batist@research.kpn.com

FROM THE AUTHOR

After seeing all these poor transcriptions of songs of 
PUSA, I've started to transcribe their songs myself.
[ Tab from: http://www.guitartabs.cc/tabs/p/presidents_of_the_usa/peaches_tab.html ]
I've included the INTRO and VERSE of PEACHES in this file.
If you would like the rest of the transcription, or 
transcriptions of other songs by the Presidents, all you'll
have to do is mail me and I'll start working on them.

If there are multiple requests for one particular song, then
I'll handle that one first.

All I ask from you is to be patient and give me 2 to 3 weeks
to get the job done, I'm a busy man you know.

I hope to hear from you all soon, PRESIDENTS rule!!!!!!!


*Drop D tuning transposed down 1/2 step (Db Ab Db)
*All pitches sound as they are written (key of Db)
*BPM = 94

INTRO

Gtr.1 Guitbass w/clean tone
    e    e    e     e    s   e     e    s   s                         
Db--0----0----------0----0---------0----0---0------------|----
Ab--5---------5--------------------5----5----------------|----
Db--0---------0--------------0---------------------------|----
                                                              



    e    s   s   E    s   s   s   e    e   s   s                 
Db--0----0---0---0----0---0---0---0----0-------0---------|----
Ab--5------------5----------------5----5---5-------------|----
Db--0------------0----------------0--------0-------------|----
                                                              



    e    s   s   e        e    s   e    e    s   s                     
Db--0--------0------------0----0--------0----0---0-------|----
Ab--5----5-------5-----------------5----5----------------|----
Db---------------0-----------------0----0----------------|----
|
Basitar w/clean tone and tremolo effect
|   q           e    s    s    s   Q             s
      
Ab--10----------10---10---10---r---9-------------r-------|----
Db-----------------------------e-----------------e-------|----
                                                              






    e    s   s   e    s   s   s   s   e    e    s   s             
Db--0----0---0---0----0---0---0---0---0----0----0---0----|----
Ab--5------------5--------------------5----5-------------|----
Db-----------------------------------------0-------------|----
|                                                              
|   e    e       e    s   s   s   Q                 s
         
Ab--7----7-------7----9---7---r---5-----------------r----|----
Db----------------------------e---------------------e----|----





    e    s   s   e    s   s   s   s   e    e    s   s             
Db-------0---0---0----0---0---0---0---0---------0---0----|----
Ab--5------------5--------------------5----5----5--------|----
Db--0--------------------------------------0-------------|----
|                                                              
|   q            E        s   s   Q                 s
               
Ab--10-----------14-------14--r---12\---------------r----|----
Db----------------------------e---------------------e----|----





    e    s   s   e    s   e    s   e    s   s   s   s             
Db--0----0---0---0----0---0----0--------0---0-------0----||---
Ab--5------------5-----------------5----5-------0--------||---
Db--0------------0-----------------0----0----------------||---
|                                                              
|   e    e       e    s   s  s Q                    s
         
Ab--7----7-------7----9---7--r-5--------------------r----||---
Db---------------------------e----------------------e----||---


VERSE

    Moving 	 to	the	country		  I'm gonna
Gtr.1 Guitbass w/clean tone
    e    e   e    s    s    s   s   s   s   e   s   s         
Db---------------------0----r---0---0---0---0-------0----|----
Ab--10---x---10---10---10---e---9---9---9---9---0---x----|----
Db--0--------0--------------s----------------------------|----
|
Gtr.2 Basitar w/clean tone (tremolo effect off)
                                   
|   e    s s e    s    s    s   s   e       e   e                 
Ab-------------------------------------------------------|----
Db--0----0-0-0----0----0----0---0---0-------0---0--------|----


    eat a	    lot   of  peaches			  I'm	

    e   s   s   s s   s   s   s   s   s   s   e   e           
Db--0---0---0---0---------0---r---0---0---0---0---0------|----
Ab--7-----------7h9---x---7---e---5---5---5---5---0------|----
Db--0-----------0-------------s---------------0----------|----
|
|   e   e       e     s   s   s   s   e       e   e                     
Ab-------------------------------------------------------|----
Db--0---0-------0-----0---0---0---0---0-------0---0------|----


    moving to the country		I'm gonna

    q    e    s   s    s   e   s   e   s   s                        
Db--9----9----9---9----r---7---7---7\--5---5-------------|----
Ab--10---10-------10---e---9---9---9\--7-----------------|----
Db--0----0-------------s-----------0\--------------------|----
|
|   e e  e    s   s    s   s e     e   e                     
Ab-------------------------------------------------------|----
Db--0-0--0----0---0----0---0-0-----0---0-----------------|----




    eat me  a lot     of  peaches				I'm

    e   s   s   s s   s   s   s   s   s   s   e   s   s       
Db--5---5---5---5h7-------5---r---4---4---4---4----------|----
Ab--7---7---7---7-----x---7---e---5---5---5---5---0---0--|----
Db--0-----------0-------------s---------------0----------|----
|
|   e   e       e     s   s   s   s   e       e   e                     
Ab-------------------------------------------------------|----
Db--0---0-------0-----0---0---0---0---0-------0---0------|----



    moving   to   the  country		    I'm gonna

    e    e   e    s    s    s   s   s   s   e   s   s         
Db---------------------0----r---0---0---0---0-------0----|----
Ab--10---x---10---10---10---e---9---9---9---9---0---x----|----
Db--0--------0--------------s----------------------------|----
|
Gtr.3 Guitbass w/clean tone
                
|   q        e    s    s    s   e       s   e   e                 
D---0--------0----0----0----r---0-------0---0------------|----
Ab--10-------10---10---10---e---9-------9---9---0--------|----
Db--0--------0--------------s----------------------------|----
|
|   e    s s e    s    s    s   s   e       e   e                 
Ab-------------------------------------------------------|----
Db--0----0-0-0----0----0----0---0---0-------0---0--------|----



    eat   a lot       of  peaches				

    e   s   s   s s   s   s   s   s   s   s   e   e           
Db--0---0---0---0---------0---r---0---0---0---0---0------|----
Ab--7-----------7h9---x---7---e---5---5---5---5---0------|----
Db--0-----------0-------------s---------------0----------|----
|
|   e   s   s   s s   s   s   e       s   s   e   s   s             
Db--0-----------0-----r---0---r-------0-----------r---9--|----
Ab--7---7---7---7h9---e---7---e-------5---5---5/--e---10-|----
Db--------------------s-------s-------------------s------|----
|
|   e   e       e     s   s   s   s   e       e   e                     
Ab-------------------------------------------------------|----
Db--0---0-------0-----0---0---0---0---0-------0---0------|----



    moving to     the  country        I'm gonna

    q    e    s   s    s   e   s   e   s   s                        
Db--9----9----9---9----r---7---7---7\--5---5-------------|----
Ab--10---10-------10---e---9---9---9\--7-----------------|----
Db--0----0-------------s-----------0\--------------------|----
|
|   q    E        s    s   e   s   e   s   s                      
Db--9----9--------9----r---7---7---7---7---7-------------|----
Ab--10---10-------10---e---9---9---9---9---9-------------|----
Db---------------------s---------------------------------|----|
|   e e  e    s   s    s   s e     e   e                     
Ab-------------------------------------------------------|----
Db--0-0--0----0---0----0---0-0-----0---0-----------------|----



    eat a   lot       of  peaches

    e   s   s   s s   s   s   s   s   s   s   e   s   s       
Db--5---5---5---5h7-------5---r---4---4---4---4----------||---
Ab--7---7---7---7-----x---7---e---5---5---5---5---0---0--||---
Db--0-----------0-------------s---------------0----------||---
|
|   e   s   s  s s    s   s   s   E       s   s   s   s             
Db--5---5---5--5/7----r---5---r---4-------r---0----------||---
Ab--7---7---7--7/9----e---7---e---5-------e---0---0---0--||---
Db--------------------s-------s-----------s--------------||---
|
|   e   e       e     s   s   s   s   e       e   e                     
Ab-------------------------------------------------------||---
Db--0---0-------0-----0---0---0---0---0-------0---0------||---



==============================================================
==                  TABLATURE EXPLANATION                   ==
==============================================================

----------                ----------                ----t---
----5h8--- Hammeron       ----(8)--- Ghost          ----6--- Tap
----------                ---------- Note           --------
----5p8--- Pulloff        ----------                --------

----------                ----------                -----p--
----5/8--- Slide Up       -----x---- Dead           -----7-- Pop
----------                ---------- Note           --s-----
----5\8--- Slide Down     ----------                --5----- Slap 

----------                ||------|| Repeat         --------
----5~~~-- Vibrato        ||*----*||                ---5^--- Bend
----------                ||*----*||                --------
----------                ||------||                --------
					
----------                 s   s                    --------
-4:------- Time           -r-------- Sixteenth      --------
-4:------- Signature      -e---r---- Note Rest      --------
----------                -s---e----                --------







Rhythm:
  w = whole note            W = dotted whole
  h = half note             H = dotted half
  q = quarter note          Q = dotted quarter
  e = eighth note           E = dotted eighth
  s = sixteenth note        S = dotted sixteenth
  t = 32nd note             T = dotted 32nd
  x = 64th note             X = dotted 64th
  ^ = triplet

Comments