Presidents Of The Usa - Naked And Famous Chords & Tabs

 

Naked And Famous Chords & Tabs

Presidents Of The Usa Chords & Tabs

Version: 2 Type: Bass Tab 0 ratings
1 star 2 stars 3 stars 4 stars 5 stars
comments

Naked And Famous Bass Tab

bass comes in at around 10 seconds
----------------------------------------------|
----------------------------------------------|
--4--------1-3--------------------------------|
----0-1-2-------------------------------------|

----------------------------------------------|
----------------------------------------------|
-4-4-4-4--------------------------------------|
----------------------------------------------|
those lucky suckers.....

----------------------------------------------|
----------------------------------------------|
--4-4-4-4--9-9-9-9----------------------------|
----------------------------------------------|
thirty foot smurfs...
[ Tab from: http://www.guitartabs.cc/tabs/p/presidents_of_the_usa/naked_and_famous_btab_ver_2.html ]

right before the breakout:
----------------------------------------------|
----------------------------------------------|
-4--------1-3-4--2-1--1/\---------------------|
----0-1-2-------------------------------------|

----------------------------------------------|
----------------------------------------------|
--4-4-4-4-2-2-2-------------------------------|
----------------2-2-2-0-0-0-------------------|
dont get a nosebleed...

they stick a few of these in there:
----------------------------------------------|
----------------------------------------------|
--4-4-4-4-----------4--4-4-4------------------|
----------2-2-2-4-4---------------------------|
Comments