Presidents Of The Usa - Love Delicatasen Chords & Tabs

 

Love Delicatasen Chords & Tabs

Presidents Of The Usa Chords & Tabs

Version: 1 Type: Tab 0 ratings
1 star 2 stars 3 stars 4 stars 5 stars
comments

Love Delicatasen Tab

-------------------------------------------------------------------------------
			     love delicatasen - presidents of the USA
-------------------------------------------------------------------------------
Tabbed by:stuart Honeyman
Email:stuart_honeyman@hotmail.co.uk
Tuning:standard
intro/verse riff
e|------------------------------------------------------------------------------|
B|------------------------------------------------------------------------------|
G|------..4---------------------------------------------------------------------|
D|.4-4-2-4--4-4-4-2-4---4-4-4-2-4-----------------------------------------------|
A|.4-4-2-2--4-4-4-2-4---4-4-4-2-4-----------------------------------------------|
E|-2-2-0----2-2-2-0-2---2-2-2-0-2-----------------------------------------------|
"i was looking atthe pies" fill bit
e|-------------------------------------------------------------------------------|
B|-------------------------------------------------------------------------------|
G|------------------2-2----------------------------------------------------------|
D|---------2------------4-4------------------------------------------------------|
A|-----2-4------2-4--------------------------------------------------------------|
E|-2-5-------2-5-----------------------------------------------------------------|
just before chorus, palm muted
e|-----------------------------------------------------------------------------|
B|-----------------------------------------------------------------------------|
G|-----------------------------------------------------------------------------|
D|------------4-2--------------------------------------------------------------|
A|-444444444-----4-2-----------------------------------------------------------|
E|-222222222-------------------------------------------------------------------|
chorus:this is how i play it, you might want to pllay the chords in different versions.
e|-2-2--------------------------------------------------------------------------|
B|-2-2-2-2-9-9-4----------------------------------------------------------------|
G|.3-3-2-2-9-9-4----------------------------------------------------------------|
D|.4-4-2-2-9-9-4----------------------------------------------------------------|
A|.4-4-0-0-7-7-2----------------------------------------------------------------|
E|-2-2--------------------------------------------------------------------------|
it is very wierd for the ...bridge so i just ddid a wee solo..f sharp pentatonic
e|--------------------2-5------------------------------------------------------|
B|----------------2-5----------------------------------------------------------|
G|------------2-4--------------------------------------------------------------|
D|--------2-4------------------------------------------------------------------|
A|----2-4----------------------------------------------------------------------|
E|-2-5-------------------------------------------------------------------------|
at the end of this section it goes
e|---------------------------------------------------------------------------|
B|---------------------------------------------------------------------------|
G|---------------------------------------------------------------------------|
D|---------------------------------------------------------------------------|
A|-7-6-4-7-6-4---------------------------------------------------------------|
E|-5-4-2-5-4-2---------------------------------------------------------------|
back to chorus
e|---------------------------------------------------------------------------|
B|---------------------------------------------------------------------------|
G|---------------------------------------------------------------------------|
D|---------------------------------------------------------------------------|
A|---------------------------------------------------------------------------|
E|---------------------------------------------------------------------------|
for the breakdown just arpeggieate the chorus chords, repeat the chorus again then end.
[ Tab from: http://www.guitartabs.cc/tabs/p/presidents_of_the_usa/love_delicatasen_tab.html ]
Comments