Presidents Of The Usa - Kitty Chords & Tabs

 

Kitty Chords & Tabs

Presidents Of The Usa Chords & Tabs

Version: 1 Type: Bass Tab 0 ratings
1 star 2 stars 3 stars 4 stars 5 stars
comments

Kitty Bass Tab

this is my first tab so it may be wrong

drop D tuning

----------------------------------------------------|
----------------------------------------------------|
-------------4-4-4-------------4-4-4----------------|      repeat twice
-4-4-4-4-4-4-------2-2-2-2-2-2----------------------|
[ Tab from: http://www.guitartabs.cc/tabs/p/presidents_of_the_usa/kitty_btab.html ]
----------------------------------------------------|
----------------------------------------------------|
-----2---------2------------------------------------|      repeat until chorus
-0-----1-1-1-1--------------------------------------|

this is all you will need to play this song


you will have to find out which order they go in
Comments