Presidents Of The Usa - Japan Chords & Tabs

 

Japan Chords & Tabs

Presidents Of The Usa Chords & Tabs

Version: 1 Type: Tab 0 ratings
1 star 2 stars 3 stars 4 stars 5 stars
comments

Japan Tab

------------------------------------|
------------------------------------|
-4-4XXXX4-4-------------------------|
-4-4XXXX4-4-------------------------|
-2-2XXXX2-2-------------------------|
------------------------------------|
big shiny jet plane in the sky
please drop us off as we fly by

------------------------------------|
------------------------------------|
------------------------------------|
-4-4XXXX4-4-3-3-2-2XXXX2-2XXXX2-2---|
-4-4XXXX4-4-3-3-2-2XXXX2-2XXXX2-2---|
-2-2XXXX2-2-1-1-0-0XXXX0-0XXXX0-0---|
where an american band

------------------------------------|
------------------------------------|
------------------------------------|
-6--4--2----------------------------|
-6--4--2----------------------------|
-4--2--0----------------------------|
and everything is rockin outa control...

when we hit japan.

------------------------------------|
------------------------------------|
-4-4XXXX4-4--7-7XXXX7-7--4*-7*------|
-4-4XXXX4-4--7-7XXXX7-7--4*-7*------|         *=hit 8 times.
-2-2XXXX2-2--5-5XXXX5-5--2*-5*------|
------------------------------------|

[ Tab from: http://www.guitartabs.cc/tabs/p/presidents_of_the_usa/japan_tab.html ]
------------------------------------|
------------------------------------|
------------------------------------|
-4*-6*-4*-2*------------------------|
-4*-6*-4*-2*------------------------|
-2*-4*-2*-0*------------------------|
p.m...........
got 20 tons of sushi lovin fun (yum-yum)
a greeting line well thank you one by one
please come out to see us when we land

------------------------------------|
------------------------------------|
------------------------------------|
-6--4--2----------------------------|
-6--4--2----------------------------|
-4--2--0----------------------------|
and everything is rockin outa control

------------------------------------|
------------------------------------|
---4--------------------------------|
--4-----4---------------------------|    (put some phaser wah type crap on
-2-----4----------------------------|       this)
------2-----------------------------|
when we hit japan
when we hit japan....

------------------------------------|
------------------------------------|
-4-4-4-4-4-6-6-6-6-6----------------|
-4-4-4-4-4-6-6-6-6-6----------------|    the rythm of this is easy to pick up
-2-2-2-2-2-4-4-4-4-4----------------|
------------------------------------|
when we hit japan...


------------------------------------|
------------------------------------|
-4-4-6-6-4-4-9-9--------------------|     same as this one
-4-4-6-6-4-4-9-9--------------------|
-2-2-4-4-2-2-7-7--------------------|
------------------------------------|
ahawooohhoohoohoo
Comments