Presidents Of The Usa - Gone Again Gone Chords & Tabs

 

Gone Again Gone Chords & Tabs

Presidents Of The Usa Chords & Tabs

Version: 1 Type: Tab 0 ratings
1 star 2 stars 3 stars 4 stars 5 stars
comments

Gone Again Gone Tab

-----------------|
-----------------|
-----9---9-------|
------6-6--------|
-----------------|
-6/8-------------|
well i knew a gifted man
stayed 16 all his days
a dry and dark romantic
who vanished in the haze...
[ Tab from: http://www.guitartabs.cc/tabs/p/presidents_of_the_usa/gone_again_gone_tab.html ]
---------------------|
-10----10------------|
----6-6----6h7-------|
---------------------|
---------------------|
---------------------|
and he stood all tall and saintly
with his perry mason poems
and his customized spirit chuckling dry and quiet mumblings
we all leaned to listen to the solid gold instructions
and he got up from the party
and left all alone with out his song

----------------------------------|
-10-------------------------------|
----6---10----9-------------------|
-----------6----6-----------------|
----------------------------------|
----------------------------------|
and it did not work out for us just like we planned
so im gone-
gone again gone...

the rest is the same with alternate lyrics, for the solo, just pull it out of your ass.
Comments