Presidents Of The United States Of America - Lump Chords & Tabs

 

Presidents Of The United States Of America Chords & Tabs

Version: 1 Type: Tab 0 ratings
1 star 2 stars 3 stars 4 stars 5 stars
comments

Lump Tab

Band:The Presidents of The United States of America
Song:Lump
Tabbed by:Majikphat


Chorus:
e|---------------------------------------------|x2
B|---------------------------------------------|
G|---------------------------------------------|
D|--4-6--4-6--4-6-------------------5^-5^5^55--|
A|--2-4--2-4--2-4-----3/4-4-4-4-4--------------|
E|--------------------1/2-2-2-2-2--------------|

Verse 2:
e|--------------------------------------|x2
B|--------------------------------------|
G|--------------------------------------|
D|---6-6-6-6-6-6-6-6--4-4-4-4-----------|
A|---4-4-4-4-4-4-4-4--2-2-2-2--2-2-2-2--|
E|-----------------------------0-0-0-0--|

e|----------------------------------------------|
B|----------------------------------------------|
G|----------------------------------------------|
D|--6-6-6-6-6-6-6-6-----------2-3-4-4-----------|
A|--4-4-4-4-4-4-4-4--2-3-4-4--0-1-2-2----4-4----|
E|-------------------0-1-2-2-----------0-2-2-0--|

Lyrics:
[ Tab from: http://www.guitartabs.cc/tabs/p/presidents_of_the_united_states_of_america/lump_tab.html ]
Lump sat alone in a boggy marsh
Totally motionless except for her heart
Mud flowed up into Lump's pajamas
She totally confused all the passing piranhas

She's Lump, she's Lump
She's in my head
She's Lump, she's Lump, she's Lump
She might be dead

Lump lingered last in line for brains,
And the ones she got were sort of rotten and insane
Small thing's so sad that birds could land
Is Lump fast asleep or rockin' out with the band?

She's Lump, she's Lump
She's in my head
She's Lump, she's Lump, she's Lump
She might be dead

Lump was limp and lonely and needed a shove
Lump slipped on a kiss and tumbled into love
She spent her twenties between the sheets
Life limped along at subsonic speeds

She's Lump, she's Lump
She's in my head
She's Lump, she's Lump, she's Lump
She might be dead

Is this Lump out of my head, I think so
Is this Lump out of my head, I think so, yeah
Is this Lump out of my head, I think so
Is this Lump out of my head...



//e-mail all comments to majikphat@yahoo.com//
  
Comments
Presidents Of The United States Of America chords | Presidents Of The United States Of America Lump tab