Presidents Of The United States Of America - Kitty Chords & Tabs

 

Kitty Chords & Tabs

Presidents Of The United States Of America Chords & Tabs

Version: 1 Type: Bass Tab 0 ratings
1 star 2 stars 3 stars 4 stars 5 stars
comments

Kitty Bass Tab

Presidents of the united states of america
-------------------------------------------
     Kitty
    ------
Intro:

|-----------------------------------
|-----0-2-4-4-4-4-------0-2-4-4-4-4-
|-4-4-------------2-2-2-------------  x4
|-----------------------------------
[ Tab from: http://www.guitartabs.cc/tabs/p/presidents_of_the_united_states_of_america/kitty_btab.html ]
Verse:
|-(6)----------|
|----2-2-2-2-2-|
|-4------------|
|--------------|

Chorus:

|-----------------------------------
|-----0-2-4-4-4-4-------0-2-4-4-4-4-
|-4-4-------------2-2-2-------------
|-----------------------------------
The rest you can find by yourself now, nothing new...
XbertX
Comments