Presidents Of The United States - Kick Out The Jams Chords & Tabs

 

Kick Out The Jams Chords & Tabs

Presidents Of The United States Chords & Tabs

Version: 1 Type: Bass Tab 0 ratings
1 star 2 stars 3 stars 4 stars 5 stars
comments

Kick Out The Jams Bass Tab

From: cprine@lynk.mv.com (Chris Prine)
Subject: BTAB:Kick Out the Jams by Presidents of USA
Date: Thu, 04 Jan 1996 06:17:03 GMT
Status: O


Kick Out the Jams - by Presidents of USA
Bass Tab

Main riff: Distorted for intro
G-|--------------------|
D-|----------4/6\4-----|
A-|--4-4-4-7-----------|
E-|--------------------|
   
   Mission control       callin' supernova
G-|--------------------|--------------------|
D-|--------------------|--4---4---4---4-----|
A-|--4---4---4---4-----|--------------------|
E-|--------------------|--------------------|
[ Tab from: http://www.guitartabs.cc/tabs/p/presidents_of_the_united_states/kick_out_the_jams_btab.html ]
Chorus:
    kick out the jams   yeah kick out the jams
G-|--------------------|--------------------|
D-|--------------------|--------------------|
A-|--4-4-4-4-4-4-4-4---|--7-7-7-7-7-7-7-7---|
E-|--------------------|--------------------|


/---------------================######+######================---------------\
| Chris Prine   cprine@lynk.mv.com    |                                     |
| "Please, Captain, not in front of   |   http://www.mv.com/ipusers/lynk    |
|     the Klingons." -- Spock         |                                     |
\---------------================######+######================---------------/



Comments