Pre Shrunk - Screen Savoiur Chords & Tabs

 

Screen Savoiur Chords & Tabs

Pre Shrunk Chords & Tabs

Version: 2 Type: Bass Tab 0 ratings
1 star 2 stars 3 stars 4 stars 5 stars
comments

Screen Savoiur Bass Tab

Song: Screen Saviour
Band: Pre_Shrunk
EP: Sudden Blinding Certainty
Tabbed by Manda & Ritchie preshrunk@email.com
http://creation.preshrunk.net/

                     x2
G|-------------------|
D|-------------------|
A|-------3-------3~/-|
E|---5-5-----5-5-----|

G|-------------------------|
D|-------------------------|
A|-------3---5^7-6-5-------|
E|---5-5-------------6-----|

You'll need to play around with the 'hack pack heroes' bit. 
I'm not too sure about the timing or exactly how many times 
its played but here's the notes to help!!
[ Tab from: http://www.guitartabs.cc/tabs/p/pre_shrunk/screen_savoiur_btab_ver_2.html ]
G|------------|
D|--7--8--6---|
A|------------|
E|------------|

The whole song is basically made up of this....
G|---------------------------------------|
D|--------0^2-1-0------------------------|
A|-0-0-3-----------1---------------------|
E|---------------------------------------|

You'll need to play around with the 'hack pack heroes' bit. 
I'm not too sure about the timing or exactly how many times 
its played but here's the notes to help!!

G|----------------------------------------|
D|-7---8----------------------------------|
A|----------11----------------------------|
E|----------------------------------------|

Comments