Pre Shrunk - Salvation Chords & Tabs

 

Salvation Chords & Tabs

Pre Shrunk Chords & Tabs

Version: 1 Type: Bass Tab 0 ratings
1 star 2 stars 3 stars 4 stars 5 stars
comments

Salvation Bass Tab

   
Pre-Shrunk
tabs for salvation

	tabbed by rossko  

	e-mail: fourstring@one.net.au
 
E to D tuning
                                                           
G----------------------------------------------------------------
D----------------------------------------------------------------
A--------5--5-----5--5-----5--5------5--5------------------------
D----0-0------0-0------0-0------0-0-------0-0--------------------



[ Tab from: http://www.guitartabs.cc/tabs/p/pre_shrunk/salvation_btab.html ]
G----------------------------------------------------------------
D----------------------------------------------------------------
A-------------------4--------------------------------------------
D----0-0-7-3--0-0-7----------------------------------------------

Chorus

G----------------------------------------------------------------
D----------------------------------------------------------------
A----5-----2-----------------------------------------------------
D----------------5----7------------------------------------------

Comments