Pre Shrunk - Road Rager Chords & Tabs

 

Road Rager Chords & Tabs

Pre Shrunk Chords & Tabs

Version: 2 Type: Bass Tab 0 ratings
1 star 2 stars 3 stars 4 stars 5 stars
comments

Road Rager Bass Tab

Song: Road Rager
Band: Pre_Shrunk
EP: Sudden Blinding Certainty
Tabbed by Manda preshrunk@email.com
http://creation.preshrunk.net/

G| ----------------------------------|
D| -------5^7--0-0-3-0-0-5-0-0-6\----|
A| -1-0------------------------------|
E| ----------------------------------|

Verse bit (repeat quite a lot)...
G| ------------------------------------------------------------------|
D| -12^13-----------------------------9^10---------------------------|
A| ---------0-0-0-0-3-3-3-3-4-4-4-5---------0-0-0-0-3-3-3-3-4-4-4-5--|
E| ------------------------------------------------------------------|
[ Tab from: http://www.guitartabs.cc/tabs/p/pre_shrunk/road_rager_btab_ver_2.html ]
The mexican hat dance thing....
G| ------------18--------------18-------------------------|
D| ----------19--------------19-----19--19-18-18----------|
A| -19-19-19---------19-19-19--------------------21-21-19-|
E| -------------------------------------------------------|

G| -------------------------------------------21-21-19-19---------|
D| ----------18-21--------------18-21\---------------------21-19--|
A| --19-19-19---------19-19-19------------------------------------|
E| ---------------------------------------------------------------|

The end bit......
G| --------------------|
D| --------------------|
A| -0\4-0-0-3-3-4-4-5--|
E| --------------------|

Comments