Pre Shrunk - Ring In Sympathy Chords & Tabs

 

Ring In Sympathy Chords & Tabs

Pre Shrunk Chords & Tabs

Version: 2 Type: Bass Tab 0 ratings
1 star 2 stars 3 stars 4 stars 5 stars
comments

Ring In Sympathy Bass Tab

Pre Shrunk
Tabs for ring in sympathy

	tabbed by rossko :)

	e-mail fourstring@one.net.au

Drop E to D tuning
                                                        
G---------------------------------------
D---------------------------------------
A---------------------------------------
D----7-----3-----0-----------3-----5----




G-II------------------------------------
D-II*-----------------------------------
A-II*-----3--3-3------------------------
D-II--7-7--------3--3-3-3---0--0--0-----


					 
G-------------------------------------II
D------------------------------------*II
A-------3--3-3-------------5--5--5---*II
D---7-7--------3--3-3-3---(5)(5)(5)---II
                          these notes replace ones above on last play
[ Tab from: http://www.guitartabs.cc/tabs/p/pre_shrunk/ring_in_sympathy_btab_ver_2.html ]
					 
G---------------------------------------
D---------------------------------------
A----0--0--0--0-0-3--------------------- 
D----7--7--7--7-7-10--------------------


					 
G---------------------------------------
D---------------------------------------
A----0-12-0-12-0-12-0-15----------------
D---------------------------------------

End
					 
G---------------------------------------
D---------------------------------------
A---------------------------------------
D----7----3----0------------------------



G---------------------------------------
D---------------------------------------
A--------------5------------------------
D----7----3-----------------------------



G---------------------------------------
D---------------------------------------
A---------------------------------------
D----3----5-----------------------------
Comments