Pre Shrunk - Ring In Sympathy Chords & Tabs

 

Ring In Sympathy Chords & Tabs

Pre Shrunk Chords & Tabs

Version: 1 Type: Bass Tab 0 ratings
1 star 2 stars 3 stars 4 stars 5 stars
comments

Ring In Sympathy Bass Tab

Tabs for ring in sympathy

	davage

	tabbed by rossko :)

	e-mail fourstring@one.net.au

Drop E to D tuning

intro                                                        
G---------------------------------------
D---------------------------------------
A---------------------------------------
D----7-----3-----0-----------3-----5----



G-II------------------------------------
D-II*-----------------------------------
A-II*-----3--3-3------------------------
D-II--7-7--------3--3-3-3---0--0--0-----


					 
G-------------------------------------II
D------------------------------------*II
A-------3--3-3-------------5--5--5---*II
D---7-7--------3--3-3-3---(5)(5)(5)---II
                          these notes replace ones above on last play

					 
G---------------------------------------
D---------------------------------------
A--------------------------------------- 
D----7--7--7--7-7-10--------------------


					 
G---------------------------------------
D---------------------------------------
A----0-12-0-12-0-12-0-15----------------
D---------------------------------------


					 
G---------------------------------------
D---------------------------------------
A---------------------------------------
D----7----3----0------------------------



G---------------------------------------
D---------------------------------------
A--------------5------------------------
D----7----3-----------------------------



G---------------------------------------
D---------------------------------------
A---------------------------------------
D----7----3----0------------------------



G---------------------------------------
D---------------------------------------
A---------------------------------------
D----3----5-----------------------------



tabs for Ring in Sympathy

	Dave

	tabbed by Rossko :)

	email : fourstring@one.net.au


G------------------------------------------------------------
D------------------------------------------------------------
A----22------------------------------------------------------
E------------------------------------------------------------

this is the main part of daves bit. just mess around with it
on repeats, variations to endings below.
[ Tab from: http://www.guitartabs.cc/tabs/p/pre_shrunk/ring_in_sympathy_btab.html ]
G------------------------------------------------------------
D------------------------------------------------------------
A----22------------------------------------------------------
E----------20--------19---19\20------------------------------



G------------------------------------------------------------
D------------------------------------------------------------
A----22------------------------------------------------------
E----------20--------19---19\20------------------------------



G------------------------------------------------------------
D------------------------------------------------------------
A----22---------------------------24----22-------------------
E----------20--------19---19\20------------------------------



G------------------------------------------------------------
D------------------------------------------------------------
A----22---------------------------24----22-------------------
E----------20--------19---19\20------------------------------



G------------------------------------------------------------
D------------------------------------------------------------
A----22------------------------------------------------------
E----------20--------19---19\20------------------------------



G------------------------------------------------------------
D------------------------------------------------------------
A----22---------------------------24----22-------------------
E----------20--------19---19\20------------------------------

first time

G------------------------------------------------------------
D------------------------------------------------------------
A------------------------------------------------------------
E----17------------------------------------------------------

second time

G------------------------------------------------------------
D------------------------------------------------------------
A----22------------------------------------------------------
E----------20--------19---19\20--------19---17---------------

third time
dave pauses on the 22 note and playes it a few more times 
than this

G------------------------------------------------------------
D------------------------------------------------------------
A----22--------------22--22-----22-22-22---------------------
E--------------------------------------------17--------------

Comments