Pre Shrunk - Popcorn Chords & Tabs

 

Popcorn Chords & Tabs

Pre Shrunk Chords & Tabs

Version: 1 Type: Bass Tab 0 ratings
1 star 2 stars 3 stars 4 stars 5 stars
comments

Popcorn Bass Tab

Song: Popcorn
Band: Pre_Shrunk
As yet unreleased
Tabbed by Manda preshrunk@email.com
http://creation.preshrunk.net/

Dave occasionaly bursts into this song live somewhere in Accelerate.
It's awesome to play!!

G|-2-2---2---------2-2---2---------2-2-4-5-4-5-4-2-4-2-4-2-0-2---------|
D|-----2---2---2-------2---2---2-------------------------------2---2---|
A|-----------3---0-----------3---0-------------------------------3---0-|
E|---------------------------------------------------------------------|
[ Tab from: http://www.guitartabs.cc/tabs/p/pre_shrunk/popcorn_btab.html ]
G|-9-9----9-------------9-9----9---------------------------------------|
D|-----10---10----10--------10--10----10-------------------------------|
A|-------------12----12------------12----12----------------------------|
E|---------------------------------------------------------------------|

G|-9-9-11-12-11-12-11-9-11-9-11-9----9---------------------------------|
D|--------------------------------12---10----10------------------------|
A|----------------------------------------12----12---------------------|
E|---------------------------------------------------------------------|

Comments