Pre Shrunk - Hot Robots Chords & Tabs

 

Hot Robots Chords & Tabs

Pre Shrunk Chords & Tabs

Version: 1 Type: Bass Tab 0 ratings
1 star 2 stars 3 stars 4 stars 5 stars
comments

Hot Robots Bass Tab

Song: Hot Robots
Band: Pre_Shrunk
EP: Sub Chakra
Tabbed by Manda preshrunk@email.com
http://creation.preshrunk.net/

****** Davage's parts ******

G|-------------------------|
D|-------------13----------|
A|----------13----15-------|
C|-13^14^15----------------|

And approximately every forth time this slight variation is chucked in ...
G|-------------------------|
D|-------------15----------|
A|----------13----15-------|
C|-13^14^15----------------|
[ Tab from: http://www.guitartabs.cc/tabs/p/pre_shrunk/hot_robots_btab.html ]
Other Bit:
G|-----------------------------------------------------------------------|
D|-----------------------------------------------------------------------|
A|---------------------------1-1-1-1-------------------------------------|
C|-0-0-0-0--3-3-3-3--5-5-5-5----------0-0-0-0--3-3-3-3--5-5-5-5--1-1-1-1-|

G|-----------------------------------------------------------------------|
D|-----------------------------------------------------------------------|
A|---------------------------1-1-1-1--3-3--------------------------------|
C|-0-0-0-0--3-3-3-3--5-5-5-5--------------0-0--3-3-3-3--5-5-5-5--1-1-1-1-|

With heavy bit play opening riff with destortion and a plectrum.

Comments