Pre Shrunk - Flutterbye Chords & Tabs

 

Flutterbye Chords & Tabs

Pre Shrunk Chords & Tabs

Version: 2 Type: Bass Tab 0 ratings
1 star 2 stars 3 stars 4 stars 5 stars
comments

Flutterbye Bass Tab

   
Song: Flutterbye
Band: Pre_Shrunk
EP: Triple A Side
Tabbed by Manda & Ritchie, preshrunk@email.com
http://creation.preshrunk.net/

****** Davage's parts ******

Drop D Tuning (low to high: D A D G)

G|-------------------------------------|
D|--12^10^12---------12^10^12/13-------|
A|-------------------------------------|
D|------------12/----------------12/---|

                                                     x2
G|---------------------------------------------------|
D|-----------------10-11-12------------------10b-12--|
A|-----------9--12---------------------9--12---------|
D|-10-11-12-------------------10-11-12---------------|

G|-----------------------|
D|--------------12-12----|
A|-----------------------|
D|--12/------------------|

G|---------------------------------------------------|
D|-----------------10-11-12------------------10b-12--|
A|-----------9--12---------------------9--12---------|
D|-10-11-12-------------------10-11-12---------------|

G|--------------------------------------------------------|
D|-----------------10-11-12------------------10^12-10-12--|
A|-----------9--12---------------------9--12--------------|
D|-10-11-12-------------------10-11-12--------------------|

    You want it
G|----------------------------------------------|
D|------------------------------10-12-10-12-----|
A|------------------------------------------13\-|
D|--12-12---12-13-13--11-11-12------------------|

G|----------------------------|
D|----------12^10^12/13-------|
A|----------------------9-12--|
D|-10-11-12-------------------|

                               x2
G|----------------------------|
D|---------12^10^12/13--------|
A|---------------------9-12---|
D|--12-12---------------------|

G|--------------------------------|
D|--------------------------12-12-|
A|--------------------------------|
D|--12-12-10-9-10-12\-------------|
[ Tab from: http://www.guitartabs.cc/tabs/p/pre_shrunk/flutterbye_btab_ver_2.html ]
                                                     x2
G|---------------------------------------------------|
D|-----------------10-11-12------------------10b-12--|
A|-----------9--12---------------------9--12---------|
D|-10-11-12-------------------10-11-12---------------|

    You want it
G|----------------------------------------------|
D|------------------------------10-12-10-12-----|
A|------------------------------------------13\-|
D|--12-12---12-13-13--11-11-12------------------|

w/ distortion                                    x2
G|-----------------------------------------------|
D|------------12^10^12/13------------------------|
A|-----------------------------------------------|
D|--12-11-10----------------12-11-10-------5-----|

                       x4
G|--------------------|----|
D|--12-11-10-12-11-10-|-12-|
A|--------------------|----|
D|--------------------|----|

   Bent again off my head
G|---------------------------------------------------|
D|-----------------10-11-12------------------10b-12--|
A|-----------9--12---------------------9--12---------|
D|-10-11-12-------------------10-11-12---------------|

G|--------------------------------------|
D|-----------------10-11-12----12^10^12-|
A|-----------9--12----------------------|
D|-10-11-12-----------------------------|

Man I'm Wasted!

G|---------------|
D|--12-----------|
A|-----9-10-12---|
D|---------------|


    Why do dogs hate skate boards??
G|------------------|
D|--12-12-----------|
A|--------9-10-12---|
D|------------------|

                              x4
G|----------------------------|
D|---------12^10^12/13--------|
A|---------------------9-12---|
D|--12-12---------------------|

    You want it
G|----------------------------------------------|
D|------------------------------10-12-10-12-----|
A|------------------------------------------13\-|
D|--12-12---12-13-13--11-11-12------------------|


Oh YEAH!!
Comments