Pre Shrunk - Come To Chords & Tabs

 

Come To Chords & Tabs

Pre Shrunk Chords & Tabs

Version: 1 Type: Bass Tab 0 ratings
1 star 2 stars 3 stars 4 stars 5 stars
comments

Come To Bass Tab

Song: Come To
Band: Pre_Shrunk
EP: Sub Chakra
Tabbed by Manda preshrunk@email.com
http://creation.preshrunk.net/

****** Davage's parts ******

I think all Davage's parts are here as for Dave, maybe 
later... we need more pedals.

Oh and Davage uses and Octave pedal for all of it cept the intro.


Intro: x lots
G|----------------------|
D|*--19^20----19^20----*|
A|*--18(18)---18(18)---*|
D|----------------------|

G|----------------------|
D|*--5---5---5---5---5-*|
A|*--------------------*|
D|-5---5---5---5---5----|

                   _______________
                x3 4.
G|---------------|---------------|
D|*---------1---*|----------3~---|
A|*-0-0-1-3-----*|--0-0-1-3------|
D|---------------|---------------|

                 X4
G|---------------|
D|*---------1---*|
A|*-0-0-1-3-----*|
D|---------------|
                                  x3
G|--------------------------------|
D|---------0^1------------------1-|
A|-0-0-1-3-----0-1-0-1--0-0-1-3---|
D|--------------------------------|

                         xlots
G|-----------------------|
D|*---------1^3---------*|
A|*-0-0-1-3-----0-1-0-1-*|
D|-----------------------|
[ Tab from: http://www.guitartabs.cc/tabs/p/pre_shrunk/come_to_btab.html ]
G|----------------------|
D|*--5---5---5---5---5-*|
A|*--------------------*|
D|-5---5---5---5---5----|


                         xlots
G|-----------------------|
D|*---------1^3---------*|
A|*-0-0-1-3-----0-1-0-1-*|
D|-----------------------|
every now and then throw in a:
G|---------------|
D|---------0^3~--|
A|-0-0-1-3-------|
D|---------------|

G|----------------------|
D|*--5---5---5---5---5-*|
A|*--------------------*|
D|-5---5---5---5---5----|
                                                  X2
G|------------------------------------------------|
D|---------1----------3/5---------1-----------3~--|
A|-0-0-1-3----0-0-1-3-----0-0-1-3----0-0-1-3------|
D|------------------------------------------------|

G|------------3----------|
D|*--------3/5-5--0-1^3-*|
A|*-00-1-3--------------*|
D|-----------------------|


G|-------------------|
D|---------1---------|
A|-0-0-1-3---0-1-0-1-|
D|-------------------|

During Dave's slappy bit
G|---------------------------|
D|*-------17-16---13^15^13--*|
A|*-15-15-------------------*|
D|---------------------------|

G|-------------------|
D|*------5-4--1^3^1-*|
A|*-3-3-------------*|
D|-------------------|

G|-------|
D|-------|
A|-------|
D|--12/--|

end with:
G|-------------3----------|
D|*---------3/5-5--0-1^3-*|
A|*-00-1-3---------------*|
D|------------------------|


Comments