Prawnsilken - No Se Chords & Tabs

 

No Se Chords & Tabs

Prawnsilken Chords & Tabs

Version: 1 Type: Tab 0 ratings
1 star 2 stars 3 stars 4 stars 5 stars
comments

No Se Tab

   
hi im me again, these is our new demo it is very rare and is made by juan the
guitarrist of the group with all of the advices of all the group

intro- first guitar only

e--7-----
b------9-
g----8--- repeat 9 times
d--------
a--------
e--------

intro second guitar- 

e---------------------
b---------------------
g---------------------
d-2xxxx3xxxx4xxxx5xxxx
a-2xxxx3xxxx4xxxx5xxxx
e-0xxxx1xxxx2xxxx3xxxx

this is played very slow during the 4 times rest of the first guitar intro
[ Tab from: http://www.guitartabs.cc/tabs/p/prawnsilken/no_se_tab.html ]
chorus above guitars (heavy distorsion) x4
e-----------------
b-----------------
g-----------------
d-2222333344445555
a-2222333344445555
e-0000111122223333

verse guitar 1 x8
e--0-----0-
b--7--0--9-
g-----0----
d----------
a----------
e----------

verse guitar 2 this is palyed whit a lot of rasguide

e----------------
b----------------
g----------------
d-2/---3/--4/---5
a-2/---3/--4/---5
e-0/---1/--2/---3


solo x4
e-------------------
b------16-------16--
g----15--15---16--16
d--13-------14------
a-------------------
e-------------------



ok thats all wel y leave you enjoy it i will submit the chord when y get it
Comments