Pras - Ghetto Superstar Chords & Tabs

 

Ghetto Superstar Chords & Tabs

Pras Chords & Tabs

Version: 3 Type: Bass Tab 0 ratings
1 star 2 stars 3 stars 4 stars 5 stars
comments

Ghetto Superstar Bass Tab

Artist: Prass feat. Odb and Mya
Song: Ghetto Superstar

Tabbed By Nane 


Intro (for many times!)

G|-----------------|
D|-----------------|
A|-----------------|
E|---222-----------|

Chours

G|-------------------------------------------------------------------------|
D|-------------------------------------------------------------------------|
A|-------------------0-2-2-2-2-2-2-0-2-------------------2-4-4-4-4-4-4-2-4-|
E|-0-2-2-2-2-2-2-0-2-------------------2-4-4-4-4-4-4-2-4-------------------|
[ Tab from: http://www.guitartabs.cc/tabs/p/pras/ghetto_superstar_btab_ver_3.html ]
Chorus (Continued)
G|-----------------------------------------------------------------------------|
D|---------------------------------------------------------------5-6-7-8(fast!)|
A|-------------------0-2-2-2-2-2-2-0-2--6-6-6-6--4-4-4-4--2-2-2-2--------------|
E|-0-2-2-2-2-2-2-0-2-----------------------------------------------------------|

Chorus (Continued)				
G|-------------------------------------------|  
D|-------------------------------------------| 
A|-------------2-4-4-4-4-4-------------------|  
E|-2-4-4-4-4-4-------------0-2-2-2-2-2-2-0-2-| 


Verse

G|----------------------------|
D|----------------------------|
A|----------------------------|
E|---0-2-2-2-2-2-2-0-2--------|
 

Now I think that's all correct

For Questions,Answers,Shits,Pussys mail me to: Nanexx@punkhardcore.com
Comments