Pras - Ghetto Superstar Chords & Tabs

 

Ghetto Superstar Chords & Tabs

Pras Chords & Tabs

Version: 1 Type: Bass Tab 0 ratings
1 star 2 stars 3 stars 4 stars 5 stars
comments

Ghetto Superstar Bass Tab

Ghetto Superstar (That Is What You Are)
by Pras Michel 
>From "Bulworth" Original Motion Picture Soundtrack

Intro / Chorus:
G|-------------------------------------------------------------------------|
D|-------------------------------------------------------------------------|
A|-------------------0-2-2-2-2-2-2-0-2-------------------2-4-4-4-4-4-4-2-4-|
E|-0-2-2-2-2-2-2-0-2-------------------2-4-4-4-4-4-4-2-4-------------------|
[ Tab from: http://www.guitartabs.cc/tabs/p/pras/ghetto_superstar_btab.html ]
Inrto / Chorus (Continued):
G|-------------------------------------------------------------------------|
D|----------------------------------------------6-6-6-6-4-4-4-4------------|
A|-------------------0-2-2-2-2-2-2-0-2--6-6-6-6----------------------------|
E|-0-2-2-2-2-2-2-0-2--------------------------------------------2-3-4------|

Intro / Chorus (Continued):				Verse:
G|-------------------------------------------|  
|--------------------------|
D|-------------------------------------------|  
|--------------------------|
A|-------------2-4-4-4-4-4-------------------|  
|--------------------------|
E|-2-4-4-4-4-4-------------0-2-2-2-2-2-2-0-2-|  
|-0-2-2-2-2-2-2-0-2--------|

I'm pretty sure it's accurate except the E|-2-3-4-| during the chorus. 
Comments and corrections welcome.

Submitted by Rage097@Hotmail.com

Comments