Powerpuff Girls - Love Makes The World Go Round Chords & Tabs

 

Love Makes The World Go Round Chords & Tabs

Powerpuff Girls Chords & Tabs

Version: 2 Type: Bass Tab 0 ratings
1 star 2 stars 3 stars 4 stars 5 stars
comments

Love Makes The World Go Round Bass Tab

   
Song Title: Love Makes the World go 'round
Artist: Powerpuff Girls
Album: n/a
Tabbed by:  kjs (BassAce77@hotmail.com)
Notes: This is a song from the Powerpuff Girls cartoon on Cartoon Network.  As far
       as I can tell it was just composed for the show, and at the time I made this
       tab it was not available on any CD's or tapes.  In case you were wondering...
       Bubbles plays the drums, Blossom plays lead guitar and Buttercup plays the 
       bass :-)  7/30/00


G:|--4--------4----3--4-----------|--4--3--4----------------------|-
D:|--------6----------------4-----|--------------------4----------|-
A:|-------------------------------|-------------------------------|-
E:|-------------------------------|-------------------------------|-

G:|--3--4----3--4----3--4---------|--3--4----3--4-----------------|-
D:|-------------------------4-----|----------------6--4-----------|-
A:|-------------------------------|-------------------------------|-
E:|-------------------------------|-------------------------------|-



G:|------4---4--------------------|-----4--4-4--------------------|-
D:|-----------------4-------------|-----------------4-------------|-
A:|--2----------0-----------0--1--|--2-----------0----------0--1--|-
E:|----------------------2--------|----------------------2--------|-



G:|-------------------------------|-------------------------------|-
D:|-----------------2-------------|--------2-2---2----------------|-
A:|--2----------0-----4-4-4-------|--0--4------4--------1--2----2-|-
E:|------2---2--------------------|------------------2------------|-


{Refrain I}x2
[ Tab from: http://www.guitartabs.cc/tabs/p/powerpuff_girls/love_makes_the_world_go_round_btab_ver_2.html ]
G:|-------------------------------|-------------------------------|-
D:|-------------------------------|--2--2--2----2-----------------|-
A:|--2--2--2----2--4--4--4----4---|-----------2----2------2-----2-|-
E:|-----------2-------------4-----|-------------------2-------2---|-

{end refrain}



G:|------4---4--------------------|-----4---4---------------------|-
D:|-----------------4-------------|-----------------4-------------|-
A:|--2----------0-----------0--1--|--2-----------0----------0--1--|-
E:|----------------------2--------|----------------------2--------|-



G:|-------------------------------|-------------------------------|-
D:|-----------------2-------------|--------2-2---2----------------|-
A:|--2----------0-----4-4-4-------|--0--4------4--------1--2----2-|-
E:|------2---2--------------------|------------------2------------|-


(Instrumental)x2

G:|-------------------------------|-------------------------------|-
D:|-------------------------------|--2--2--2----2-----------------|-
A:|--2--2--2----2--4--4--4----4---|-----------2----2------2-----2-|-
E:|-----------2-------------4-----|-------------------2-------2---|-



G:|-------------------------------|-------------------------------|-
D:|-------------------------------|-------------------------------|-
A:|-------------------------------|-------------------------------|-
E:|-------------------------------|-------------------------------|-


{Refrain I}x2

G:|-------------------------------|-------------------------------|-
D:|-------------------------------|--2--2--2----2-----------------|-
A:|--2--2--2----2--4--4--4----4---|-----------2----2------2-----2-|-
E:|-----------2-------------4-----|-------------------2-------2---|-
Comments