Powerman 5000 - Worlds Collide Chords & Tabs

 

Worlds Collide Chords & Tabs

Powerman 5000 Chords & Tabs

Version: 1 Type: Tab 0 ratings
1 star 2 stars 3 stars 4 stars 5 stars
comments

Worlds Collide Tab

Powerman 5000: Worlds collide
Tuning standard 
Tabed By Adam 
Rc4wdcar@aol.com	


Intro is a weird echo effect but u can play it like this
And a other guitar is strumming the strings muted
E----------------------------------------
B----------------------------------------
G----------------------------------------
D-8--6--8--6--8--6--5--4-------------
A-6--4--6--4--6--4--3--2-------------
E----------------------------------------

[ Tab from: http://www.guitartabs.cc/tabs/p/powerman_5000/worlds_collide_tab.html ]
Verses	------------------------- then later on in the chorus u can hear a like 
--------------------------------- would say a squew sound and all u do is 
--------------------------------------- play the powerchord on the e string 
---5-5-5-5-5------------------------ (the 2/4 powerchord and do a pick scrape with a  
---3-3-3-3-3-4--4--4--4--4------- wah pedal)
----------------2--2--2--2--2-------

Chorus
------------------     	             --------------------- 
------------------      		 --------------------- 
------------------      		 --------------------- 
------------------ X3 then            ---------------------
-4--4-4-4-4-4--       		  --4--4--4--4--/-7-
-2--2-0-2-0-2--      		  --2--2--0--2--/-5-

Bridge: is a weird echo effect same as the chorus just play clean or with a flanger
E----------------------------------------
B----------------------------------------
G----------------------------------------
D-8--6--8--6--8--6--5--4-------------
A-6--4--6--4--6--4--3--2-------------
E----------------------------------------

Metal!!!!
           
Comments