Powerman 5000 - When Worlds Collide Chords & Tabs

 

When Worlds Collide Chords & Tabs

Powerman 5000 Chords & Tabs

Version: 4 Type: Tab 0 ratings
1 star 2 stars 3 stars 4 stars 5 stars
comments

When Worlds Collide Tab

powerman 5000, When Worlds Collide.
Tabbed by Jared, Sk8age@aol.com.
  
G----------------------------------------------------D----------------------------------------------------A-3-3-3-------------333-------------------------------E-------2-2-2-2-2-2-----2-2-2-2-2-2-2-2---------------
            play 8x

G-----------------------------------------------------
D-----------------------------------------------------
A---------------------------------------------0-------
E-2-2-0-2-0-2-2-2-0-2-0-2-2-2-0-2-0-2-2-2-0-2---------

G-----------------------------------------------------
D-----------------------------------------------------
A-3-3-3-------------3-3-3-----------------------------
E-------2-2-2-2-2-2-------2-2-2-2-2-2-----------------
                Play 8x

G-----------------------------------------------------
D-----------------------------------------------------
A---------------------------------------------0-------
E-2-2-0-2-0-2-2-2-0-2-0-2-2-2-0-2-0-2-2-2-0-2---------

G-----------------------------------------------------
D-----------------------------------------------------
A-6--4--6--4--6--4--3---------------------------------
E-----------------------------------------------------
[ Tab from: http://www.guitartabs.cc/tabs/p/powerman_5000/when_worlds_collide_tab_ver_4.html ]
G-----------------------------------------------------
D-----------------------------------------------------A-3-3-3-------------3-3-3-----------------------------
E-------2-2-2-2-2-2-------2-2-2-2-2-2-----------------
                Play 8x                              G-----------------------------------------------------
D-----------------------------------------------------
A---------------------------------------------0-------
E-2-2-0-2-0-2-2-2-0-2-0-2-2-2-0-2-0-2-2-2-0-2---------
                    Play 4x

G-----------------------------------------------------
D-----------------------------------------------------
A-3-3-3-3-3-3-3-3-2-2-2-2-----------------------------
E-----------------------------------------------------

G-----------------------------------------------------
D-----------------------------------------------------
A---------------------------------------------0-------
E-2-2-0-2-0-2-2-2-0-2-0-2-2-2-0-2-0-2-2-2-0-2---------

G-----------------------------------------------------
D-----------------------------------------------------
A-3-3-3-3-3-3-3-3-2-2-2-2-----------------------------
E-----------------------------------------------------


 
:: Ultimate Guitar Archive :: 
http://www.ultimate-guitar.com 

Comments