Powerman 5000 - When Worlds Collide Chords & Tabs

 

When Worlds Collide Chords & Tabs

Powerman 5000 Chords & Tabs

Version: 2 Type: Tab 0 ratings
1 star 2 stars 3 stars 4 stars 5 stars
comments

When Worlds Collide Tab

Song: When Worlds Collide
   By: Powerman5000
   From: When the Stars Revolt
   Date: 8/9/99
   Tabbed by: Mike K

   Verse 

   --------------------------------------------------
   --------------------------------------------------
   --------------------------------------------------
   ----5-5-5-5------------------------------------
   ----3-3-3-3-4-4-----0------------------------
   ---------------2-2-0-2--2-----------------------
[ Tab from: http://www.guitartabs.cc/tabs/p/powerman_5000/when_worlds_collide_tab_ver_2.html ]
   Chorus
   --------------------------------------------------
   --------------------------------------------------
   --------------------------------------------------
   --------------------------------------------------
   --------------------------------------------------
   ---4---4----4------4---------------------------
   ---2---2- 0-2-- 0-2---------------------------

   --------------------------------------------------
   --------------------------------------------------
   --------------------------------------------------
   ------------------------2------------------------
   ---4---4----4------4--0------------------------
   ---2---2- 0-2-- 0-2----------------------------


   "Are You Ready" part

   --------------------------------------------------
   --------------------------------------------------
   --------------------------------------------------
   -5-5-5-5-5-5-5-5--4-4-4-4-4-4-4-4-----
   -3-3-3-3-3-3-3-3--2-2-2-2-2-2-2-2-----
   --------------------------------------------------
Comments