Powerman 5000 - Ultra Mega Chords & Tabs

 

Ultra Mega Chords & Tabs

Powerman 5000 Chords & Tabs

Version: 1 Type: Tab 0 ratings
1 star 2 stars 3 stars 4 stars 5 stars
comments

Ultra Mega Tab

   
Band - Powerman 5000
Song - Ultra Mega
Tabbed By - jackal420@hotmail.com

Tuning - C# G# C# F# Bb Eb

Intro - (Use Effect, WAH sounds ok, but Not Perfect)

Eb------------------------------------------------
Bb------------------------------------------------
F#------------------------------------------------
C#------------------------------------------------
G#------------------------------------------------
C#--4-(X 10 times)---8-(X 10 times)---------------

Chorus - Heavy Distortion

Eb------------------------------------------------
Bb------------------------------------------------
F#------------------------------------------------
C#--2--2--5--2--0--2--5--5------------------------
G#--2--2--5--2--0--2--5--5------------------------
C#--2--2--5--2--0--2--5--5------------------------

Verse - Heavy Distortion
[ Tab from: http://www.guitartabs.cc/tabs/p/powerman_5000/ultra_mega_tab.html ]
Eb------------------------------------------------
Bb------------------------------------------------
F#------------------------------------------------
C#-x-x-x-x-x-x-x--5--5--2----------------------------
G#-x-x-x-x-x-x-x--5--5--2----------------------------
C#-x-x-x-x-x-x-x--5--5--2----------------------------

(Listen For Rhythm)

Ending Riff

Eb-------------------------------------------------------------------------
Bb-------------------------------------------------------------------------
F#-------------------------------------------------------------------------
C#--2-2-2-7---2-2-2-6---2-2-2-5---2-2-2-4---2-2-2-7---2-2-2-6---2-2-2-5-2--
G#--2-2-2-7---2-2-2-6---2-2-2-5---2-2-2-4---2-2-2-7---2-2-2-6---2-2-2-5-2--
C#--2-2-2-7---2-2-2-6---2-2-2-5---2-2-2-4---2-2-2-7---2-2-2-6---2-2-2-5-2--

Intro
Chorus x 4
Verse x 3
Chorus x 2
Ending Riff
Verse x 3
Chorus x 4
Ending Riff x 2
Comments