Powerman 5000 - Supernova Goes Pop Chords & Tabs

 

Supernova Goes Pop Chords & Tabs

Powerman 5000 Chords & Tabs

Version: 1 Type: Tab 0 ratings
1 star 2 stars 3 stars 4 stars 5 stars
comments

Supernova Goes Pop Tab

Tuning from low string to high:C#,a flat,d flat,g flat,b flat,e flat
you have to have heavy fuzz for this to sound right

intro/outro:

--------------------------------------------------------
--------------------------------------------------------
--------------------------------------------------------
--------------------------------------------------------
-0--0--33333----0--0--66666--0-0-33333--0-0--6-3-0------
-0--0--33333----0--0--66666--0-0-33333--0-0--6-3-0------



verse (are u the future or are u the past...):
[ Tab from: http://www.guitartabs.cc/tabs/p/powerman_5000/supernova_goes_pop_tab.html ]
---------------------------------------
---------------------------------------
---------------------------------------
---------------------------------------
--0-0-33333--0-0--6-3-0----------------
--0-0-33333--0-0--6-3-0----------------

pre chorus (we follow from here...): repeat 2x

-----------------------------------------------------------
-----------------------------------------------------------
-----------------------------------------------------------
-----------------------------------------------------------
---333333----555555----777777--55555-33333--55555--99999---
---333333----555555----777777--55555-33333--55555--99999---

chorus (supernova goes pop...):repeat until verse/outro


-------------------------------------
-------------------------------------
-------------------------------------
-------------------------------------
----0-0-0---0-0-0----0-0-0-----------
----0-0-0---0-0-0----0-0-0-----------

Comments