Powerman 5000 - Supernova Goes Pop Chords & Tabs

 

Supernova Goes Pop Chords & Tabs

Powerman 5000 Chords & Tabs

Version: 2 Type: Bass Tab 0 ratings
1 star 2 stars 3 stars 4 stars 5 stars
comments

Supernova Goes Pop Bass Tab

Powerman 5000
Bass tab for "Supernova Goes Pop"
Off of the album Tonight the Stars Revolt!!
By Maxwell Jackal (maxwelljackal@hotmail.com)

This is a pretty easy song, but still a blast to play.
As usual, listen to the song itself for exact timing.
A few tabs of this song were already released, but none of them were 
exactly right. This tab's pretty friggin close, if not correct. This 
is how I play it, anyway.

Intro (after guitar)
G|--------------------------------------------------|
D|--------------------------------------------------|
A|--------------------------------------------------|
E|--0-0--2-2-2--0-0--5-5-5--0-0--3-3-3--0-0--0-3-2--|

G|-------------------------------------------|
D|-------------------------------------------|
A|-------------------------------------------|
E|--0-0--2-2-2--0-0--5-5-5--0-0--3-3-3--0-0--|

First Verse x2
G|-----------------------------|
D|-----------------------------|
A|-----------------------------|
E|--R--0-0--2-2-2--0-0--0-3-2--|

G|----------------------|
D|----------------------|
A|----------------------|
E|--R--0-0--3-3-3--0-0--|

Chorus Starts x2
G|-----------------------------------|
D|-----------------------------------|
A|--4-4-4----------------------------|
E|--------5-5-5-6-6-6-2-2-2-0-0-0-0--|

G|------------------------|
D|------------------------|
A|--4-4-4-----------------|
E|--------5-5-5-6-6-6-2>--|

Chorus x3
G|------------|
D|------------|
A|------------|
E|--R--0-0-0--|
[ Tab from: http://www.guitartabs.cc/tabs/p/powerman_5000/supernova_goes_pop_btab_ver_2.html ]
Second Verse x2 (same as the first)
G|-----------------------------|
D|-----------------------------|
A|-----------------------------|
E|--R--0-0--2-2-2--0-0--0-3-2--|

G|----------------------|
D|----------------------|
A|----------------------|
E|--R--0-0--3-3-3--0-0--|

Chorus Starts x2
G|-----------------------------------|
D|-----------------------------------|
A|--4-4-4----------------------------|
E|--------5-5-5-6-6-6-2-2-2-0-0-0-0--|

G|------------------------|
D|------------------------|
A|--4-4-4-----------------|
E|--------5-5-5-6-6-6-2>--|

Chorus x3
G|------------|
D|------------|
A|------------|
E|--R--0-0-0--|

Chorus Speeds Up x7
G|---------|
D|---------|
A|---------|
E|--0-0-0--|

Guitar Solo...
Slam this at the end of the solo.
G|---------|
D|---------|
A|---------|
E|--0-3-2--|

Bridge
G|-------------------------------------------|
D|-------------------------------------------|
A|-------------------------------------------|
E|--0-0--2-2-2--0-0--5-5-5--0-0--3-3-3--0-0--|

Chorus (same as the intro, except for little note below) x2
G|--------------------------------------------------|
D|--------------------------------------------------|
A|--------------------------------------------------|
E|--0-0--2-2-2--0-0--5-5-5--0-0--3-3-3--0-0--0-3-2--|

G|-------------------------------------------|
D|-------------------------------------------|
A|-------------------------------------------|
E|--0-0--2-2-2--0-0--5-5-5--0-0--3-3-3--0-0--|

Transition between the two last Chorus riffs with this note
E|--2--|

Slam this at the very end for the outro.
G|-----------|
D|-----------|
A|-----------|
E|--0-3-2-0--|
Comments