Powerman 5000 - Standing8 Chords & Tabs

 

Standing8 Chords & Tabs

Powerman 5000 Chords & Tabs

Version: 1 Type: Bass Tab 0 ratings
1 star 2 stars 3 stars 4 stars 5 stars
comments

Standing8 Bass Tab

BTAB: Standing 8
Group: Powerman 500
Author: Dave "DeMoN" Theriaque  (slipknot31386@yahoo.com)
[ Tab from: http://www.guitartabs.cc/tabs/p/powerman_5000/standing8_btab.html ]
intro/verse
G--------------------------------------------------------------------------
D----------3-----5--3---------3--------------5-----5-4-3------------------- 
A-x------5--5---------5-----5---5----------3---3---------5---5-4-3---------
E--3-3-----------------------------3--3-----------------------------5------

G--------------------------------------------------------------------------
D----------1-----3--1--------1---------------1----3-----2--3--4------------
A--------3---3--------3-----3--3-----------3---3---------------------------
E--1-1-----------------------------1--1---------------0--1--2--------------
Comments